  0
SECTION
  2
HEADER
  9
$ACADVER
  1
AC1015
  9
$ACADMAINTVER
 70
     6
  9
$DWGCODEPAGE
  3
ANSI_1254
  9
$INSBASE
 10
0.0
 20
0.0
 30
0.0
  9
$EXTMIN
 10
0.0
 20
0.0
 30
0.0
  9
$EXTMAX
 10
279.4
 20
215.9
 30
0.0
  9
$LIMMIN
 10
0.0
 20
0.0
  9
$LIMMAX
 10
279.4
 20
215.9
  9
$ORTHOMODE
 70
     0
  9
$REGENMODE
 70
     1
  9
$FILLMODE
 70
     1
  9
$QTEXTMODE
 70
     0
  9
$MIRRTEXT
 70
     1
  9
$LTSCALE
 40
1.0
  9
$ATTMODE
 70
     1
  9
$TEXTSIZE
 40
3.5
  9
$TRACEWID
 40
1.0
  9
$TEXTSTYLE
  7
Standard
  9
$CLAYER
  8
0
  9
$CELTYPE
  6
ByLayer
  9
$CECOLOR
 62
   256
  9
$CELTSCALE
 40
1.0
  9
$DISPSILH
 70
     0
  9
$DIMSCALE
 40
1.0
  9
$DIMASZ
 40
3.5
  9
$DIMEXO
 40
1.0
  9
$DIMDLI
 40
3.75
  9
$DIMRND
 40
0.0
  9
$DIMDLE
 40
0.0
  9
$DIMEXE
 40
1.0
  9
$DIMTP
 40
0.0
  9
$DIMTM
 40
0.0
  9
$DIMTXT
 40
3.5
  9
$DIMCEN
 40
2.5
  9
$DIMTSZ
 40
0.0
  9
$DIMTOL
 70
     0
  9
$DIMLIM
 70
     0
  9
$DIMTIH
 70
     1
  9
$DIMTOH
 70
     1
  9
$DIMSE1
 70
     0
  9
$DIMSE2
 70
     0
  9
$DIMTAD
 70
     1
  9
$DIMZIN
 70
     0
  9
$DIMBLK
  1

  9
$DIMASO
 70
     1
  9
$DIMSHO
 70
     1
  9
$DIMPOST
  1

  9
$DIMAPOST
  1

  9
$DIMALT
 70
     0
  9
$DIMALTD
 70
     3
  9
$DIMALTF
 40
0.0393700787
  9
$DIMLFAC
 40
1.0
  9
$DIMTOFL
 70
     1
  9
$DIMTVP
 40
0.0
  9
$DIMTIX
 70
     0
  9
$DIMSOXD
 70
     0
  9
$DIMSAH
 70
     0
  9
$DIMBLK1
  1

  9
$DIMBLK2
  1

  9
$DIMSTYLE
  2
ISO-25
  9
$DIMCLRD
 70
     0
  9
$DIMCLRE
 70
     0
  9
$DIMCLRT
 70
     0
  9
$DIMTFAC
 40
1.0
  9
$DIMGAP
 40
1.524
  9
$DIMJUST
 70
     0
  9
$DIMSD1
 70
     0
  9
$DIMSD2
 70
     0
  9
$DIMTOLJ
 70
     0
  9
$DIMTZIN
 70
     0
  9
$DIMALTZ
 70
     0
  9
$DIMALTTZ
 70
     0
  9
$DIMUPT
 70
     0
  9
$DIMDEC
 70
     2
  9
$DIMTDEC
 70
     2
  9
$DIMALTU
 70
     2
  9
$DIMALTTD
 70
     3
  9
$DIMTXSTY
  7
Standard
  9
$DIMAUNIT
 70
     0
  9
$DIMADEC
 70
     2
  9
$DIMALTRND
 40
0.0
  9
$DIMAZIN
 70
     0
  9
$DIMDSEP
 70
    44
  9
$DIMATFIT
 70
     3
  9
$DIMFRAC
 70
     0
  9
$DIMLDRBLK
  1

  9
$DIMLUNIT
 70
     2
  9
$DIMLWD
 70
    -2
  9
$DIMLWE
 70
    -2
  9
$DIMTMOVE
 70
     0
  9
$LUNITS
 70
     2
  9
$LUPREC
 70
     2
  9
$SKETCHINC
 40
1.0
  9
$FILLETRAD
 40
10.0
  9
$AUNITS
 70
     0
  9
$AUPREC
 70
     2
  9
$MENU
  1
.
  9
$ELEVATION
 40
0.0
  9
$PELEVATION
 40
0.0
  9
$THICKNESS
 40
0.0
  9
$LIMCHECK
 70
     0
  9
$CHAMFERA
 40
0.0
  9
$CHAMFERB
 40
0.0
  9
$CHAMFERC
 40
0.0
  9
$CHAMFERD
 40
0.0
  9
$SKPOLY
 70
     0
  9
$TDCREATE
 40
2459935.710443194
  9
$TDUCREATE
 40
2459935.585443194
  9
$TDUPDATE
 40
2459935.71044338
  9
$TDUUPDATE
 40
2459935.58544338
  9
$TDINDWG
 40
0.0000000116
  9
$TDUSRTIMER
 40
0.0000000116
  9
$USRTIMER
 70
     1
  9
$ANGBASE
 50
0.0
  9
$ANGDIR
 70
     0
  9
$PDMODE
 70
     0
  9
$PDSIZE
 40
-1.0
  9
$PLINEWID
 40
0.0
  9
$SPLFRAME
 70
     0
  9
$SPLINETYPE
 70
     6
  9
$SPLINESEGS
 70
     8
  9
$HANDSEED
  5
110
  9
$SURFTAB1
 70
     6
  9
$SURFTAB2
 70
     6
  9
$SURFTYPE
 70
     6
  9
$SURFU
 70
     6
  9
$SURFV
 70
     6
  9
$UCSBASE
  2

  9
$UCSNAME
  2

  9
$UCSORG
 10
0.0
 20
0.0
 30
0.0
  9
$UCSXDIR
 10
1.0
 20
0.0
 30
0.0
  9
$UCSYDIR
 10
0.0
 20
1.0
 30
0.0
  9
$UCSORTHOREF
  2

  9
$UCSORTHOVIEW
 70
     0
  9
$UCSORGTOP
 10
0.0
 20
0.0
 30
0.0
  9
$UCSORGBOTTOM
 10
0.0
 20
0.0
 30
0.0
  9
$UCSORGLEFT
 10
0.0
 20
0.0
 30
0.0
  9
$UCSORGRIGHT
 10
0.0
 20
0.0
 30
0.0
  9
$UCSORGFRONT
 10
0.0
 20
0.0
 30
0.0
  9
$UCSORGBACK
 10
0.0
 20
0.0
 30
0.0
  9
$PUCSBASE
  2

  9
$PUCSNAME
  2

  9
$PUCSORG
 10
0.0
 20
0.0
 30
0.0
  9
$PUCSXDIR
 10
1.0
 20
0.0
 30
0.0
  9
$PUCSYDIR
 10
0.0
 20
1.0
 30
0.0
  9
$PUCSORTHOREF
  2

  9
$PUCSORTHOVIEW
 70
     0
  9
$PUCSORGTOP
 10
0.0
 20
0.0
 30
0.0
  9
$PUCSORGBOTTOM
 10
0.0
 20
0.0
 30
0.0
  9
$PUCSORGLEFT
 10
0.0
 20
0.0
 30
0.0
  9
$PUCSORGRIGHT
 10
0.0
 20
0.0
 30
0.0
  9
$PUCSORGFRONT
 10
0.0
 20
0.0
 30
0.0
  9
$PUCSORGBACK
 10
0.0
 20
0.0
 30
0.0
  9
$USERI1
 70
     0
  9
$USERI2
 70
     0
  9
$USERI3
 70
     0
  9
$USERI4
 70
     0
  9
$USERI5
 70
     0
  9
$USERR1
 40
0.0
  9
$USERR2
 40
0.0
  9
$USERR3
 40
0.0
  9
$USERR4
 40
0.0
  9
$USERR5
 40
0.0
  9
$WORLDVIEW
 70
     1
  9
$SHADEDGE
 70
     3
  9
$SHADEDIF
 70
    70
  9
$TILEMODE
 70
     1
  9
$MAXACTVP
 70
    64
  9
$PINSBASE
 10
0.0
 20
0.0
 30
0.0
  9
$PLIMCHECK
 70
     0
  9
$PEXTMIN
 10
1.0000000000E+20
 20
1.0000000000E+20
 30
1.0000000000E+20
  9
$PEXTMAX
 10
-1.0000000000E+20
 20
-1.0000000000E+20
 30
-1.0000000000E+20
  9
$PLIMMIN
 10
0.0
 20
0.0
  9
$PLIMMAX
 10
420.0
 20
297.0
  9
$UNITMODE
 70
     0
  9
$VISRETAIN
 70
     1
  9
$PLINEGEN
 70
     0
  9
$PSLTSCALE
 70
     1
  9
$TREEDEPTH
 70
  3020
  9
$CMLSTYLE
  2
Standard
  9
$CMLJUST
 70
     0
  9
$CMLSCALE
 40
20.0
  9
$PROXYGRAPHICS
 70
     1
  9
$MEASUREMENT
 70
     1
  9
$CELWEIGHT
370
    -1
  9
$ENDCAPS
280
     0
  9
$JOINSTYLE
280
     0
  9
$LWDISPLAY
290
     1
  9
$INSUNITS
 70
     4
  9
$HYPERLINKBASE
  1

  9
$STYLESHEET
  1

  9
$XEDIT
290
     1
  9
$CEPSNTYPE
380
     0
  9
$PSTYLEMODE
290
     1
  9
$FINGERPRINTGUID
  2
{c3435814-adf2-4dbd-9ebb-9291343a84f6}
  9
$VERSIONGUID
  2
{FAEB1C32-E019-11D5-929B-00C0DF256EC4}
  9
$EXTNAMES
290
     1
  9
$PSVPSCALE
 40
0.0
  9
$OLESTARTUP
290
     0
  0
ENDSEC
  0
SECTION
  2
CLASSES
  0
CLASS
  1
ACDBDICTIONARYWDFLT
  2
AcDbDictionaryWithDefault
  3
ObjectDBX Classes
 90
        0
280
     0
281
     0
  0
CLASS
  1
VISUALSTYLE
  2
AcDbVisualStyle
  3
ObjectDBX Classes
 90
     4095
280
     0
281
     0
  0
CLASS
  1
MATERIAL
  2
AcDbMaterial
  3
ObjectDBX Classes
 90
     1153
280
     0
281
     0
  0
CLASS
  1
SCALE
  2
AcDbScale
  3
ObjectDBX Classes
 90
     1153
280
     0
281
     0
  0
CLASS
  1
TABLESTYLE
  2
AcDbTableStyle
  3
ObjectDBX Classes
 90
     4095
280
     0
281
     0
  0
CLASS
  1
MLEADERSTYLE
  2
AcDbMLeaderStyle
  3
ACDB_MLEADERSTYLE_CLASS
 90
     4095
280
     0
281
     0
  0
CLASS
  1
SUN
  2
AcDbSun
  3
SCENEOE
 90
     1153
280
     0
281
     0
  0
CLASS
  1
ACDBPLACEHOLDER
  2
AcDbPlaceHolder
  3
ObjectDBX Classes
 90
        0
280
     0
281
     0
  0
CLASS
  1
LAYOUT
  2
AcDbLayout
  3
ObjectDBX Classes
 90
        0
280
     0
281
     0
  0
ENDSEC
  0
SECTION
  2
TABLES
  0
TABLE
  2
VPORT
  5
8
330
0
100
AcDbSymbolTable
 70
     1
  0
VPORT
  5
29
330
8
100
AcDbSymbolTableRecord
100
AcDbViewportTableRecord
  2
*Active
 70
     0
 10
0.0
 20
0.0
 11
1.0
 21
1.0
 12
139.7
 22
107.95
 13
0.0
 23
0.0
 14
10.0
 24
10.0
 15
10.0
 25
10.0
 16
0.0
 26
0.0
 36
1.0
 17
0.0
 27
0.0
 37
0.0
 40
215.9
 41
1.2941176471
 42
50.0
 43
0.0
 44
0.0
 50
0.0
 51
0.0
 71
     0
 72
  2000
 73
     1
 74
     3
 75
     0
 76
     0
 77
     0
 78
     0
281
     0
 65
     1
110
0.0
120
0.0
130
0.0
111
1.0
121
0.0
131
0.0
112
0.0
122
1.0
132
0.0
 79
     0
146
0.0
  0
ENDTAB
  0
TABLE
  2
LTYPE
  5
5
330
0
100
AcDbSymbolTable
 70
     6
  0
LTYPE
  5
14
330
5
100
AcDbSymbolTableRecord
100
AcDbLinetypeTableRecord
  2
ByBlock
 70
     0
  3

 72
    65
 73
     0
 40
0.0
  0
LTYPE
  5
15
330
5
100
AcDbSymbolTableRecord
100
AcDbLinetypeTableRecord
  2
ByLayer
 70
     0
  3

 72
    65
 73
     0
 40
0.0
  0
LTYPE
  5
16
330
5
100
AcDbSymbolTableRecord
100
AcDbLinetypeTableRecord
  2
Continuous
 70
     0
  3
Solid line
 72
    65
 73
     0
 40
0.0
  0
LTYPE
  5
6E
330
5
100
AcDbSymbolTableRecord
100
AcDbLinetypeTableRecord
  2
HIDDEN
 70
     0
  3
Hidden __ __ __ __ __ __ __ __ __ __ __ __ __ __
 72
    65
 73
     2
 40
1.905
 49
1.27
 74
     0
 49
-0.635
 74
     0
  0
LTYPE
  5
6F
330
5
100
AcDbSymbolTableRecord
100
AcDbLinetypeTableRecord
  2
PHANTOM
 70
     0
  3
Phantom ______  __  __  ______  __  __  ______
 72
    65
 73
     6
 40
12.7
 49
6.35
 74
     0
 49
-1.27
 74
     0
 49
1.27
 74
     0
 49
-1.27
 74
     0
 49
1.27
 74
     0
 49
-1.27
 74
     0
  0
LTYPE
  5
70
330
5
100
AcDbSymbolTableRecord
100
AcDbLinetypeTableRecord
  2
CENTER
 70
     0
  3
Center ____ _ ____ _ ____ _ ____ _ ____ _ ____
 72
    65
 73
     4
 40
10.16
 49
6.35
 74
     0
 49
-1.27
 74
     0
 49
1.27
 74
     0
 49
-1.27
 74
     0
  0
LTYPE
  5
71
330
5
100
AcDbSymbolTableRecord
100
AcDbLinetypeTableRecord
  2
CENTERX2
 70
     0
  3
Center (2x) ________  __  ________  __  _____
 72
    65
 73
     4
 40
20.32
 49
12.7
 74
     0
 49
-2.54
 74
     0
 49
2.54
 74
     0
 49
-2.54
 74
     0
  0
LTYPE
  5
72
330
5
100
AcDbSymbolTableRecord
100
AcDbLinetypeTableRecord
  2
DOT2
 70
     0
  3
Dot (.5x) ........................................
 72
    65
 73
     2
 40
0.635
 49
0.0
 74
     0
 49
-0.635
 74
     0
  0
ENDTAB
  0
TABLE
  2
LAYER
  5
2
330
0
100
AcDbSymbolTable
 70
    17
  0
LAYER
  5
10
330
2
100
AcDbSymbolTableRecord
100
AcDbLayerTableRecord
  2
0
 70
     0
 62
     7
  6
Continuous
370
    -3
390
F
  0
LAYER
  5
73
330
2
100
AcDbSymbolTableRecord
100
AcDbLayerTableRecord
  2
FORMAT
 70
     0
 62
     7
  6
Continuous
370
    -3
390
F
  0
LAYER
  5
74
330
2
100
AcDbSymbolTableRecord
100
AcDbLayerTableRecord
  2
YARDIMCI_GEOMETRI
 70
     0
 62
    -6
  6
Continuous
290
     0
370
    -3
390
F
  0
LAYER
  5
75
330
2
100
AcDbSymbolTableRecord
100
AcDbLayerTableRecord
  2
SAYFA_CERCEVESI
 70
     0
 62
     7
  6
Continuous
370
    25
390
F
  0
LAYER
  5
76
330
2
100
AcDbSymbolTableRecord
100
AcDbLayerTableRecord
  2
ANTET
 70
     0
 62
     7
  6
Continuous
370
    -3
390
F
  0
LAYER
  5
77
330
2
100
AcDbSymbolTableRecord
100
AcDbLayerTableRecord
  2
OLCU
 70
     0
 62
   150
  6
Continuous
370
    -3
390
F
  0
LAYER
  5
78
330
2
100
AcDbSymbolTableRecord
100
AcDbLayerTableRecord
  2
METIN
 70
     0
 62
    96
  6
Continuous
370
    -3
390
F
  0
LAYER
  5
79
330
2
100
AcDbSymbolTableRecord
100
AcDbLayerTableRecord
  2
BALON
 70
     0
 62
     5
  6
Continuous
370
    -3
390
F
  0
LAYER
  5
7A
330
2
100
AcDbSymbolTableRecord
100
AcDbLayerTableRecord
  2
VURGU
 70
     0
 62
     7
  6
Continuous
370
    -3
390
F
  0
LAYER
  5
7B
330
2
100
AcDbSymbolTableRecord
100
AcDbLayerTableRecord
  2
SILIK
 70
     0
 62
     7
  6
Continuous
370
    -3
390
F
  0
LAYER
  5
7C
330
2
100
AcDbSymbolTableRecord
100
AcDbLayerTableRecord
  2
MODEL
 70
     0
 62
     7
  6
Continuous
370
    -3
390
F
  0
LAYER
  5
7D
330
2
100
AcDbSymbolTableRecord
100
AcDbLayerTableRecord
  2
DETAYLANDıRMA
 70
     0
 62
   190
  6
Continuous
370
    -3
390
F
  0
LAYER
  5
7E
330
2
100
AcDbSymbolTableRecord
100
AcDbLayerTableRecord
  2
TOLERANS
 70
     0
 62
   230
  6
Continuous
370
    -3
390
F
  0
LAYER
  5
7F
330
2
100
AcDbSymbolTableRecord
100
AcDbLayerTableRecord
  2
MERKEZ_CIZGILERI
 70
     0
 62
    30
  6
Continuous
370
    -3
390
F
  0
LAYER
  5
80
330
2
100
AcDbSymbolTableRecord
100
AcDbLayerTableRecord
  2
KESIT-DETAY_CIZGILERI
 70
     0
 62
     7
  6
Continuous
370
    -3
390
F
  0
LAYER
  5
81
330
2
100
AcDbSymbolTableRecord
100
AcDbLayerTableRecord
  2
\U+041E\U+0421\U+0415\U+0412\U+042B\U+0415
 70
     0
 62
     7
  6
Continuous
370
    -3
390
F
  0
LAYER
  5
82
330
2
100
AcDbSymbolTableRecord
100
AcDbLayerTableRecord
  2
\U+0412\U+041E\U+0414\U+042F\U+041D\U+042B\U+0415_\U+0417\U+041D\U+0410\U+041A\U+0418
 70
     0
 62
    11
  6
Continuous
370
    -3
390
F
  0
ENDTAB
  0
TABLE
  2
STYLE
  5
3
330
0
100
AcDbSymbolTable
 70
     1
  0
STYLE
  5
11
330
3
100
AcDbSymbolTableRecord
100
AcDbTextStyleTableRecord
  2
Standard
 70
     0
 40
0.0
 41
1.0
 50
0.0
 71
     0
 42
3.5
  3
txt
  4

  0
ENDTAB
  0
TABLE
  2
VIEW
  5
6
330
0
100
AcDbSymbolTable
 70
     0
  0
ENDTAB
  0
TABLE
  2
UCS
  5
7
330
0
100
AcDbSymbolTable
 70
     0
  0
ENDTAB
  0
TABLE
  2
APPID
  5
9
330
0
100
AcDbSymbolTable
 70
     1
  0
APPID
  5
12
330
9
100
AcDbSymbolTableRecord
100
AcDbRegAppTableRecord
  2
ACAD
 70
     0
  0
ENDTAB
  0
TABLE
  2
DIMSTYLE
  5
A
330
0
100
AcDbSymbolTable
 70
     1
100
AcDbDimStyleTable
  0
DIMSTYLE
105
27
330
A
100
AcDbSymbolTableRecord
100
AcDbDimStyleTableRecord
  2
ISO-25
 70
     0
 41
2.5
 42
0.625
 43
3.75
 44
1.25
 73
     0
 74
     0
 77
     1
 78
     8
140
2.5
141
2.5
143
0.0393700787
147
0.625
171
     3
172
     1
178
     0
271
     2
272
     2
274
     3
278
    44
283
     0
284
     8
340
11
  0
ENDTAB
  0
TABLE
  2
BLOCK_RECORD
  5
1
330
0
100
AcDbSymbolTable
 70
     4
  0
BLOCK_RECORD
  5
1F
330
1
100
AcDbSymbolTableRecord
100
AcDbBlockTableRecord
  2
*Model_Space
340
22
  0
BLOCK_RECORD
  5
1B
330
1
100
AcDbSymbolTableRecord
100
AcDbBlockTableRecord
  2
*Paper_Space
340
1E
  0
BLOCK_RECORD
  5
23
330
1
100
AcDbSymbolTableRecord
100
AcDbBlockTableRecord
  2
*Paper_Space0
340
26
  0
BLOCK_RECORD
  5
8C
330
1
100
AcDbSymbolTableRecord
100
AcDbBlockTableRecord
  2
SW_CENTERMARKSYMBOL_0
340
0
102
{BLKREFS
331
97
102
}
  0
BLOCK_RECORD
  5
DE
330
1
100
AcDbSymbolTableRecord
100
AcDbBlockTableRecord
  2
SW_CENTERMARKSYMBOL_1
340
0
102
{BLKREFS
331
E9
102
}
  0
BLOCK_RECORD
  5
EA
330
1
100
AcDbSymbolTableRecord
100
AcDbBlockTableRecord
  2
SW_CENTERMARKSYMBOL_2
340
0
102
{BLKREFS
331
F5
102
}
  0
ENDTAB
  0
ENDSEC
  0
SECTION
  2
BLOCKS
  0
BLOCK
  5
20
330
1F
100
AcDbEntity
  8
0
100
AcDbBlockBegin
  2
*Model_Space
 70
     0
 10
0.0
 20
0.0
 30
0.0
  3
*Model_Space
  1

  0
ENDBLK
  5
21
330
1F
100
AcDbEntity
  8
0
100
AcDbBlockEnd
  0
BLOCK
  5
1C
330
1B
100
AcDbEntity
 67
     1
  8
0
100
AcDbBlockBegin
  2
*Paper_Space
 70
     0
 10
0.0
 20
0.0
 30
0.0
  3
*Paper_Space
  1

  0
ENDBLK
  5
1D
330
1B
100
AcDbEntity
 67
     1
  8
0
100
AcDbBlockEnd
  0
BLOCK
  5
24
330
23
100
AcDbEntity
  8
0
100
AcDbBlockBegin
  2
*Paper_Space0
 70
     0
 10
0.0
 20
0.0
 30
0.0
  3
*Paper_Space0
  1

  0
ENDBLK
  5
25
330
23
100
AcDbEntity
  8
0
100
AcDbBlockEnd
  0
BLOCK
  5
8D
330
8C
100
AcDbEntity
  8
0
100
AcDbBlockBegin
  2
SW_CENTERMARKSYMBOL_0
 70
     0
 10
0.0
 20
0.0
 30
0.0
  3
SW_CENTERMARKSYMBOL_0
  1

  0
LINE
  5
8F
330
8C
100
AcDbEntity
  8
FORMAT
 62
     0
100
AcDbLine
 10
0.0
 20
0.0
 30
0.0
 11
0.0
 21
2.5
 31
0.0
  0
LINE
  5
90
330
8C
100
AcDbEntity
  8
FORMAT
 62
     0
100
AcDbLine
 10
0.0
 20
0.0
 30
0.0
 11
-2.5
 21
0.0
 31
0.0
  0
LINE
  5
91
330
8C
100
AcDbEntity
  8
FORMAT
 62
     0
100
AcDbLine
 10
0.0
 20
0.0
 30
0.0
 11
0.0
 21
-2.5
 31
0.0
  0
LINE
  5
92
330
8C
100
AcDbEntity
  8
FORMAT
 62
     0
100
AcDbLine
 10
0.0
 20
0.0
 30
0.0
 11
2.5
 21
0.0
 31
0.0
  0
LINE
  5
93
330
8C
100
AcDbEntity
  8
FORMAT
 62
     0
100
AcDbLine
 10
0.0
 20
5.0
 30
0.0
 11
0.0
 21
180.7
 31
0.0
  0
LINE
  5
94
330
8C
100
AcDbEntity
  8
FORMAT
 62
     0
100
AcDbLine
 10
-5.0
 20
0.0
 30
0.0
 11
-180.7
 21
0.0
 31
0.0
  0
LINE
  5
95
330
8C
100
AcDbEntity
  8
FORMAT
 62
     0
100
AcDbLine
 10
0.0
 20
-5.0
 30
0.0
 11
0.0
 21
-180.7
 31
0.0
  0
LINE
  5
96
330
8C
100
AcDbEntity
  8
FORMAT
 62
     0
100
AcDbLine
 10
5.0
 20
0.0
 30
0.0
 11
180.7
 21
0.0
 31
0.0
  0
ENDBLK
  5
8E
330
8C
100
AcDbEntity
  8
0
100
AcDbBlockEnd
  0
BLOCK
  5
DF
330
DE
100
AcDbEntity
  8
0
100
AcDbBlockBegin
  2
SW_CENTERMARKSYMBOL_1
 70
     0
 10
0.0
 20
0.0
 30
0.0
  3
SW_CENTERMARKSYMBOL_1
  1

  0
LINE
  5
E1
330
DE
100
AcDbEntity
  8
FORMAT
 62
     0
100
AcDbLine
 10
0.0
 20
0.0
 30
0.0
 11
0.0
 21
2.5
 31
0.0
  0
LINE
  5
E2
330
DE
100
AcDbEntity
  8
FORMAT
 62
     0
100
AcDbLine
 10
0.0
 20
0.0
 30
0.0
 11
-2.5
 21
0.0
 31
0.0
  0
LINE
  5
E3
330
DE
100
AcDbEntity
  8
FORMAT
 62
     0
100
AcDbLine
 10
0.0
 20
0.0
 30
0.0
 11
0.0
 21
-2.5
 31
0.0
  0
LINE
  5
E4
330
DE
100
AcDbEntity
  8
FORMAT
 62
     0
100
AcDbLine
 10
0.0
 20
0.0
 30
0.0
 11
2.5
 21
0.0
 31
0.0
  0
LINE
  5
E5
330
DE
100
AcDbEntity
  8
FORMAT
 62
     0
100
AcDbLine
 10
0.0
 20
5.0
 30
0.0
 11
0.0
 21
9.5
 31
0.0
  0
LINE
  5
E6
330
DE
100
AcDbEntity
  8
FORMAT
 62
     0
100
AcDbLine
 10
-5.0
 20
0.0
 30
0.0
 11
-9.5
 21
0.0
 31
0.0
  0
LINE
  5
E7
330
DE
100
AcDbEntity
  8
FORMAT
 62
     0
100
AcDbLine
 10
0.0
 20
-5.0
 30
0.0
 11
0.0
 21
-9.5
 31
0.0
  0
LINE
  5
E8
330
DE
100
AcDbEntity
  8
FORMAT
 62
     0
100
AcDbLine
 10
5.0
 20
0.0
 30
0.0
 11
9.5
 21
0.0
 31
0.0
  0
ENDBLK
  5
E0
330
DE
100
AcDbEntity
  8
0
100
AcDbBlockEnd
  0
BLOCK
  5
EB
330
EA
100
AcDbEntity
  8
0
100
AcDbBlockBegin
  2
SW_CENTERMARKSYMBOL_2
 70
     0
 10
0.0
 20
0.0
 30
0.0
  3
SW_CENTERMARKSYMBOL_2
  1

  0
LINE
  5
ED
330
EA
100
AcDbEntity
  8
FORMAT
 62
     0
100
AcDbLine
 10
0.0
 20
0.0
 30
0.0
 11
0.0
 21
2.5
 31
0.0
  0
LINE
  5
EE
330
EA
100
AcDbEntity
  8
FORMAT
 62
     0
100
AcDbLine
 10
0.0
 20
0.0
 30
0.0
 11
-2.5
 21
0.0
 31
0.0
  0
LINE
  5
EF
330
EA
100
AcDbEntity
  8
FORMAT
 62
     0
100
AcDbLine
 10
0.0
 20
0.0
 30
0.0
 11
0.0
 21
-2.5
 31
0.0
  0
LINE
  5
F0
330
EA
100
AcDbEntity
  8
FORMAT
 62
     0
100
AcDbLine
 10
0.0
 20
0.0
 30
0.0
 11
2.5
 21
0.0
 31
0.0
  0
LINE
  5
F1
330
EA
100
AcDbEntity
  8
FORMAT
 62
     0
100
AcDbLine
 10
0.0
 20
5.0
 30
0.0
 11
0.0
 21
9.5
 31
0.0
  0
LINE
  5
F2
330
EA
100
AcDbEntity
  8
FORMAT
 62
     0
100
AcDbLine
 10
-5.0
 20
0.0
 30
0.0
 11
-9.5
 21
0.0
 31
0.0
  0
LINE
  5
F3
330
EA
100
AcDbEntity
  8
FORMAT
 62
     0
100
AcDbLine
 10
0.0
 20
-5.0
 30
0.0
 11
0.0
 21
-9.5
 31
0.0
  0
LINE
  5
F4
330
EA
100
AcDbEntity
  8
FORMAT
 62
     0
100
AcDbLine
 10
5.0
 20
0.0
 30
0.0
 11
9.5
 21
0.0
 31
0.0
  0
ENDBLK
  5
EC
330
EA
100
AcDbEntity
  8
0
100
AcDbBlockEnd
  0
ENDSEC
  0
SECTION
  2
ENTITIES
  0
LINE
  5
83
330
1F
100
AcDbEntity
  8
0
  6
Continuous
 62
     7
370
    25
100
AcDbLine
 10
137.6070913462
 20
311.463395759
 30
0.0
 11
137.6070913462
 21
314.0949519231
 31
0.0
  0
LINE
  5
84
330
1F
100
AcDbEntity
  8
0
  6
Continuous
 62
     7
370
    25
100
AcDbLine
 10
123.6070913462
 20
314.0949519231
 30
0.0
 11
123.6070913462
 21
311.4609016949
 31
0.0
  0
CIRCLE
  5
85
330
1F
100
AcDbEntity
  8
0
  6
Continuous
 62
     7
370
    25
100
AcDbCircle
 10
130.6070913462
 20
95.8949519231
 30
0.0
 40
215.5
  0
ARC
  5
86
330
1F
100
AcDbEntity
  8
0
  6
Continuous
 62
     7
370
    25
100
AcDbCircle
 10
130.6070913462
 20
95.8949519231
 30
0.0
 40
216.5000000000008
100
AcDbArc
 50
91.8528423509
 51
180.0
  0
ARC
  5
87
330
1F
100
AcDbEntity
  8
0
  6
Continuous
 62
     7
370
    25
100
AcDbCircle
 10
130.6070913462
 20
95.8949519231
 30
0.0
 40
216.5000000000008
100
AcDbArc
 50
180.0
 51
88.1471576491
  0
SPLINE
  5
88
330
1F
100
AcDbEntity
  8
0
  6
Continuous
 62
     7
370
    25
100
AcDbSpline
210
0.0
220
0.0
230
1.0
 70
     8
 71
     3
 72
    14
 73
    10
 74
     0
 42
0.00000001
 43
0.00000001
 40
0.0
 40
0.0
 40
0.0
 40
0.0
 40
0.1431675041631339
 40
0.2863352913064844
 40
0.4294912258554124
 40
0.5726357426301332
 40
0.7157984097675276
 40
0.858964408965298
 40
1.0
 40
1.0
 40
1.0
 40
1.0
 10
135.5580166596117
 20
311.4456590958659
 30
0.0
 10
134.9468370988136
 20
311.4509530669513
 30
0.0
 10
133.7244767691798
 20
311.461541019586
 30
0.0
 10
131.3896610212065
 20
311.4735552387582
 30
0.0
 10
129.0079131779619
 20
311.4708724107834
 30
0.0
 10
126.7915808087502
 20
311.4558300466018
 30
0.0
 10
125.0238802807729
 20
311.4397104127569
 30
0.0
 10
123.8320010389641
 20
311.4347867211605
 30
0.0
 10
123.6854808005501
 20
311.452240315076
 30
0.0
 10
123.6127698477142
 20
311.460901694949
 30
0.0
  0
SPLINE
  5
89
330
1F
100
AcDbEntity
  8
0
  6
Continuous
 62
     7
370
    25
100
AcDbSpline
210
0.0
220
0.0
230
1.0
 70
     8
 71
     3
 72
    10
 73
     6
 74
     0
 42
0.00000001
 43
0.00000001
 40
0.0
 40
0.0
 40
0.0
 40
0.0
 40
0.3010598511047185
 40
0.7301011449862786
 40
1.0
 40
1.0
 40
1.0
 40
1.0
 10
137.5239115100492
 20
311.4633957590398
 30
0.0
 10
137.5184567617756
 20
311.4557052899225
 30
0.0
 10
137.5052284354294
 20
311.4370551102743
 30
0.0
 10
136.7211736241775
 20
311.436891348623
 30
0.0
 10
135.8820485489874
 20
311.4432165796869
 30
0.0
 10
135.5580166596117
 20
311.4456590958659
 30
0.0
  0
CIRCLE
  5
8A
330
1F
100
AcDbEntity
  8
0
  6
Continuous
 62
     7
370
    25
100
AcDbCircle
 10
130.6070913462
 20
95.8949519231
 30
0.0
 40
178.2
  0
LINE
  5
8B
330
1F
100
AcDbEntity
  8
0
  6
Continuous
 62
     7
370
    25
100
AcDbLine
 10
137.6070913462
 20
314.0949519231
 30
0.0
 11
123.6070913462
 21
314.0949519231
 31
0.0
  0
INSERT
  5
97
330
1F
100
AcDbEntity
  8
FORMAT
 62
     7
100
AcDbBlockReference
  2
SW_CENTERMARKSYMBOL_0
 10
130.6070913462
 20
95.8949519231
 30
0.0
  0
LINE
  5
98
330
1F
100
AcDbEntity
  8
0
  6
Continuous
 62
     7
370
    25
100
AcDbLine
 10
739.3327250257
 20
-120.6050480769
 30
0.0
 11
764.3327250257
 21
-120.6050480769
 31
0.0
  0
LINE
  5
99
330
1F
100
AcDbEntity
  8
0
  6
Continuous
 62
     7
370
    25
100
AcDbLine
 10
764.3327250257
 20
312.3949519231
 30
0.0
 11
739.3327250257
 21
312.3949519231
 31
0.0
  0
ARC
  5
9A
330
1F
100
AcDbEntity
  8
0
  6
Continuous
 62
     7
370
    25
100
AcDbCircle
 10
764.3327250257
 20
-7816.230048077
 30
0.0
 40
8128.625000000071
100
AcDbArc
 50
89.2345554021
 51
90.0
  0
LINE
  5
9B
330
1F
100
AcDbEntity
  8
0
  6
Continuous
 62
     7
370
    25
100
AcDbLine
 10
891.8327250257
 20
311.3949519231
 30
0.0
 11
886.7449580028
 21
311.473172135
 31
0.0
  0
ARC
  5
9C
330
1F
100
AcDbEntity
  8
0
  6
Continuous
 62
     7
370
    25
100
AcDbCircle
 10
764.3327250257
 20
8008.0199519231
 30
0.0
 40
8128.625000000069
100
AcDbArc
 50
270.0
 51
270.8987388974
  0
LINE
  5
9D
330
1F
100
AcDbEntity
  8
0
  6
Continuous
 62
     7
370
    25
100
AcDbLine
 10
616.8597597544
 20
311.4722572122
 30
0.0
 11
611.8327250257
 21
311.3949519231
 31
0.0
  0
ARC
  5
9E
330
1F
100
AcDbEntity
  8
0
  6
Continuous
 62
     7
370
    25
100
AcDbCircle
 10
739.3327250257
 20
-7816.230048077
 30
0.0
 40
8128.625000000071
100
AcDbArc
 50
90.0
 51
90.765316054
  0
ARC
  5
9F
330
1F
100
AcDbEntity
  8
0
  6
Continuous
 62
     7
370
    25
100
AcDbCircle
 10
739.3327250257
 20
8008.0199519231
 30
0.0
 40
8128.625000000069
100
AcDbArc
 50
269.1012611026
 51
270.0
  0
LINE
  5
A0
330
1F
100
AcDbEntity
  8
0
  6
Continuous
 62
     7
370
    25
100
AcDbLine
 10
630.8327250257
 20
311.6675099114
 30
0.0
 11
630.8327250257
 21
314.0949519231
 31
0.0
  0
LINE
  5
A1
330
1F
100
AcDbEntity
  8
0
  6
Continuous
 62
     7
370
    25
100
AcDbLine
 10
616.8327250257
 20
314.0949519231
 30
0.0
 11
616.8327250257
 21
311.4714065192
 31
0.0
  0
LINE
  5
A2
330
1F
100
AcDbEntity
  8
0
  6
Continuous
 62
     7
370
    25
100
AcDbLine
 10
886.8327250257
 20
311.4703535793
 30
0.0
 11
886.8327250257
 21
314.0949519231
 31
0.0
  0
LINE
  5
A3
330
1F
100
AcDbEntity
  8
0
  6
Continuous
 62
     7
370
    25
100
AcDbLine
 10
872.8327250257
 20
314.0949519231
 30
0.0
 11
872.8327250257
 21
311.6666465896
 31
0.0
  0
LINE
  5
A4
330
1F
100
AcDbEntity
  8
0
  6
Continuous
 62
     7
370
    25
100
AcDbLine
 10
891.8327250257
 20
95.8949519231
 30
0.0
 11
891.8327250257
 21
311.3949519231
 31
0.0
  0
LINE
  5
A5
330
1F
100
AcDbEntity
  8
0
  6
Continuous
 62
     7
370
    25
100
AcDbLine
 10
891.8327250257
 20
-119.6050480769
 30
0.0
 11
891.8327250257
 21
95.8949519231
 31
0.0
  0
SPLINE
  5
A6
330
1F
100
AcDbEntity
  8
0
  6
Continuous
 62
     7
370
    25
100
AcDbSpline
210
0.0
220
0.0
230
1.0
 70
     8
 71
     3
 72
    17
 73
    13
 74
     0
 42
0.00000001
 43
0.00000001
 40
0.0
 40
0.0
 40
0.0
 40
0.0
 40
0.0719287386998238
 40
0.1793233009007745
 40
0.2867314804605807
 40
0.3941421599077272
 40
0.5015229846540606
 40
0.6088872669182299
 40
0.7162962600953753
 40
0.8237696387362187
 40
0.9312344505830331
 40
1.0
 40
1.0
 40
1.0
 40
1.0
 10
886.7448996354708
 20
311.4703483231147
 30
0.0
 10
886.7448111451187
 20
311.4703258665544
 30
0.0
 10
886.7445905325742
 20
311.4702698808026
 30
0.0
 10
885.8435301759346
 20
311.4555846751431
 30
0.0
 10
884.2661001873054
 20
311.4394774012234
 30
0.0
 10
882.1588470761718
 20
311.4359399611139
 30
0.0
 10
879.7972887725844
 20
311.4568887945722
 30
0.0
 10
877.4402855559847
 20
311.5037644312006
 30
0.0
 10
875.3445447201505
 20
311.5674493307041
 30
0.0
 10
873.7857352178331
 20
311.6279805628149
 30
0.0
 10
872.9091289558881
 20
311.667259608798
 30
0.0
 10
872.9199174727855
 20
311.6668114742763
 30
0.0
 10
872.9241271803893
 20
311.66663661101
 30
0.0
  0
LINE
  5
A7
330
1F
100
AcDbEntity
  8
0
  6
Continuous
 62
     7
370
    25
100
AcDbLine
 10
611.8327250257
 20
95.8949519231
 30
0.0
 11
611.8327250257
 21
311.3949519231
 31
0.0
  0
LINE
  5
A8
330
1F
100
AcDbEntity
  8
0
  6
Continuous
 62
     7
370
    25
100
AcDbLine
 10
611.8327250257
 20
-119.6050480769
 30
0.0
 11
611.8327250257
 21
95.8949519231
 31
0.0
  0
SPLINE
  5
A9
330
1F
100
AcDbEntity
  8
0
  6
Continuous
 62
     7
370
    25
100
AcDbSpline
210
0.0
220
0.0
230
1.0
 70
     8
 71
     3
 72
    18
 73
    14
 74
     0
 42
0.00000001
 43
0.00000001
 40
0.0
 40
0.0
 40
0.0
 40
0.0
 40
0.0261258282160496
 40
0.1333599144854888
 40
0.2406188805953191
 40
0.3479755611139013
 40
0.4553856059753669
 40
0.562755080212373
 40
0.6700600816671923
 40
0.7773556188649798
 40
0.8846833370290951
 40
0.992024426272887
 40
1.0
 40
1.0
 40
1.0
 40
1.0
 10
630.759720844456
 20
311.6674830577523
 30
0.0
 10
630.7819147783024
 20
311.6684898636555
 30
0.0
 10
630.8952042440134
 20
311.6736291284489
 30
0.0
 10
630.3108405382246
 20
311.6467950899282
 30
0.0
 10
629.0359304708523
 20
311.5938724552901
 30
0.0
 10
627.1110982414225
 20
311.528126463441
 30
0.0
 10
624.8330237372991
 20
311.4729316392863
 30
0.0
 10
622.4358901474
 20
311.4410869923909
 30
0.0
 10
620.2042091484398
 20
311.4355971301305
 30
0.0
 10
618.3587900594439
 20
311.4488855580851
 30
0.0
 10
617.2145283451023
 20
311.465014469659
 30
0.0
 10
616.7212404750359
 20
311.4737083387418
 30
0.0
 10
616.8509456840666
 20
311.4715456109141
 30
0.0
 10
616.8599164037421
 20
311.4713960315316
 30
0.0
  0
LINE
  5
AA
330
1F
100
AcDbEntity
  8
0
  6
Continuous
 62
     7
370
    25
100
AcDbLine
 10
630.8327250257
 20
314.0949519231
 30
0.0
 11
616.8327250257
 21
314.0949519231
 31
0.0
  0
LINE
  5
AB
330
1F
100
AcDbEntity
  8
0
  6
Continuous
 62
     7
370
    25
100
AcDbLine
 10
886.8327250257
 20
314.0949519231
 30
0.0
 11
872.8327250257
 21
314.0949519231
 31
0.0
  0
LINE
  5
AC
330
1F
100
AcDbEntity
  8
0
  6
Continuous
 62
     1
370
    25
100
AcDbLine
 10
764.3327250257
 20
95.8949519231
 30
0.0
 11
764.3327250257
 21
312.3949519231
 31
0.0
  0
LINE
  5
AD
330
1F
100
AcDbEntity
  8
0
  6
Continuous
 62
     1
370
    25
100
AcDbLine
 10
764.3327250257
 20
-120.6050480769
 30
0.0
 11
764.3327250257
 21
95.8949519231
 31
0.0
  0
LINE
  5
AE
330
1F
100
AcDbEntity
  8
0
  6
Continuous
 62
     1
370
    25
100
AcDbLine
 10
739.3327250257
 20
95.8949519231
 30
0.0
 11
739.3327250257
 21
312.3949519231
 31
0.0
  0
LINE
  5
AF
330
1F
100
AcDbEntity
  8
0
  6
Continuous
 62
     1
370
    25
100
AcDbLine
 10
739.3327250257
 20
-120.6050480769
 30
0.0
 11
739.3327250257
 21
95.8949519231
 31
0.0
  0
LINE
  5
B0
330
1F
100
AcDbEntity
  8
0
  6
Continuous
 62
     7
370
    25
100
AcDbLine
 10
347.1070913462
 20
664.0389203267
 30
0.0
 11
347.1070913462
 21
689.0389203267
 31
0.0
  0
LINE
  5
B1
330
1F
100
AcDbEntity
  8
0
  6
Continuous
 62
     7
370
    25
100
AcDbLine
 10
-85.8929086538
 20
689.0389203267
 30
0.0
 11
-85.8929086538
 21
664.0389203267
 31
0.0
  0
ARC
  5
B2
330
1F
100
AcDbEntity
  8
0
  6
Continuous
 62
     7
370
    25
100
AcDbCircle
 10
8042.7320913462
 20
689.0389203267
 30
0.0
 40
8128.625000000071
100
AcDbArc
 50
179.1012611026
 51
180.0
  0
ARC
  5
B3
330
1F
100
AcDbEntity
  8
0
  6
Continuous
 62
     7
370
    25
100
AcDbCircle
 10
-7781.5179086539
 20
689.0389203267
 30
0.0
 40
8128.62500000007
100
AcDbArc
 50
0.0
 51
0.8987388974
  0
ARC
  5
B4
330
1F
100
AcDbEntity
  8
0
  6
Continuous
 62
     7
370
    25
100
AcDbCircle
 10
8042.7320913462
 20
664.0389203267
 30
0.0
 40
8128.62500000007
100
AcDbArc
 50
180.0
 51
180.8987388974
  0
ARC
  5
B5
330
1F
100
AcDbEntity
  8
0
  6
Continuous
 62
     7
370
    25
100
AcDbCircle
 10
-7781.5179086539
 20
664.0389203267
 30
0.0
 40
8128.62500000007
100
AcDbArc
 50
359.1012611026
 51
0.0
  0
LINE
  5
B6
330
1F
100
AcDbEntity
  8
0
  6
Continuous
 62
     7
370
    25
100
AcDbLine
 10
346.1070913462
 20
816.5389203267
 30
0.0
 11
-84.8929086538
 21
816.5389203267
 31
0.0
  0
LINE
  5
B7
330
1F
100
AcDbEntity
  8
0
  6
Continuous
 62
     7
370
    25
100
AcDbLine
 10
346.1070913462
 20
536.5389203267
 30
0.0
 11
-84.8929086538
 21
536.5389203267
 31
0.0
  0
LINE
  5
B8
330
1F
100
AcDbEntity
  8
0
  6
Continuous
 62
     1
370
    25
100
AcDbLine
 10
347.1070913462
 20
689.0389203267
 30
0.0
 11
-85.8929086538
 21
689.0389203267
 31
0.0
  0
LINE
  5
B9
330
1F
100
AcDbEntity
  8
0
  6
Continuous
 62
     1
370
    25
100
AcDbLine
 10
347.1070913462
 20
664.0389203267
 30
0.0
 11
-85.8929086538
 21
664.0389203267
 31
0.0
  0
LINE
  5
BA
330
1F
100
AcDbEntity
  8
0
  6
Continuous
 62
     7
370
    25
100
AcDbLine
 10
-541.329527369
 20
312.3949519231
 30
0.0
 11
-566.329527369
 21
312.3949519231
 31
0.0
  0
LINE
  5
BB
330
1F
100
AcDbEntity
  8
0
  6
Continuous
 62
     7
370
    25
100
AcDbLine
 10
-566.329527369
 20
-120.6050480769
 30
0.0
 11
-541.329527369
 21
-120.6050480769
 31
0.0
  0
ARC
  5
BC
330
1F
100
AcDbEntity
  8
0
  6
Continuous
 62
     7
370
    25
100
AcDbCircle
 10
-566.329527369
 20
8008.0199519231
 30
0.0
 40
8128.625000000069
100
AcDbArc
 50
269.1012611026
 51
270.0
  0
LINE
  5
BD
330
1F
100
AcDbEntity
  8
0
  6
Continuous
 62
     7
370
    25
100
AcDbLine
 10
-688.7418879085
 20
311.4731702137
 30
0.0
 11
-693.829527369
 21
311.3949519231
 31
0.0
  0
ARC
  5
BE
330
1F
100
AcDbEntity
  8
0
  6
Continuous
 62
     7
370
    25
100
AcDbCircle
 10
-566.329527369
 20
-7816.230048077
 30
0.0
 40
8128.625000000071
100
AcDbArc
 50
90.0
 51
90.7654458009
  0
ARC
  5
BF
330
1F
100
AcDbEntity
  8
0
  6
Continuous
 62
     7
370
    25
100
AcDbCircle
 10
-541.329527369
 20
8008.0199519231
 30
0.0
 40
8128.625000000069
100
AcDbArc
 50
270.0
 51
270.8987388974
  0
ARC
  5
C0
330
1F
100
AcDbEntity
  8
0
  6
Continuous
 62
     7
370
    25
100
AcDbCircle
 10
-541.329527369
 20
-7816.230048077
 30
0.0
 40
8128.62500000007
100
AcDbArc
 50
89.2346851757
 51
90.0
  0
LINE
  5
C1
330
1F
100
AcDbEntity
  8
0
  6
Continuous
 62
     7
370
    25
100
AcDbLine
 10
-413.829527369
 20
311.3949519231
 30
0.0
 11
-418.8567317948
 21
311.4722597693
 31
0.0
  0
LINE
  5
C2
330
1F
100
AcDbEntity
  8
0
  6
Continuous
 62
     7
370
    25
100
AcDbLine
 10
-418.829527369
 20
311.4714065192
 30
0.0
 11
-418.829527369
 21
314.0949519231
 31
0.0
  0
LINE
  5
C3
330
1F
100
AcDbEntity
  8
0
  6
Continuous
 62
     7
370
    25
100
AcDbLine
 10
-432.829527369
 20
314.0949519231
 30
0.0
 11
-432.829527369
 21
311.6675099114
 31
0.0
  0
LINE
  5
C4
330
1F
100
AcDbEntity
  8
0
  6
Continuous
 62
     7
370
    25
100
AcDbLine
 10
-674.829527369
 20
311.6666465896
 30
0.0
 11
-674.829527369
 21
314.0949519231
 31
0.0
  0
LINE
  5
C5
330
1F
100
AcDbEntity
  8
0
  6
Continuous
 62
     7
370
    25
100
AcDbLine
 10
-688.829527369
 20
314.0949519231
 30
0.0
 11
-688.829527369
 21
311.4703535793
 31
0.0
  0
LINE
  5
C6
330
1F
100
AcDbEntity
  8
0
  6
Continuous
 62
     7
370
    25
100
AcDbLine
 10
-693.829527369
 20
311.3949519231
 30
0.0
 11
-693.829527369
 21
-119.6050480769
 31
0.0
  0
SPLINE
  5
C7
330
1F
100
AcDbEntity
  8
0
  6
Continuous
 62
     7
370
    25
100
AcDbSpline
210
0.0
220
0.0
230
1.0
 70
     8
 71
     3
 72
    10
 73
     6
 74
     0
 42
0.00000001
 43
0.00000001
 40
0.0
 40
0.0
 40
0.0
 40
0.0
 40
0.4291445944630648
 40
0.8582900371593851
 40
1.0
 40
1.0
 40
1.0
 40
1.0
 10
-686.7780967117769
 20
311.4456590958655
 30
0.0
 10
-687.2696719603161
 20
311.4507684063759
 30
0.0
 10
-688.2528234290265
 20
311.4609870374957
 30
0.0
 10
-688.8628252725537
 20
311.4724706935855
 30
0.0
 10
-688.7657955942688
 20
311.4707704976038
 30
0.0
 10
-688.741708808069
 20
311.4703484385201
 30
0.0
  0
SPLINE
  5
C8
330
1F
100
AcDbEntity
  8
0
  6
Continuous
 62
     7
370
    25
100
AcDbSpline
210
0.0
220
0.0
230
1.0
 70
     8
 71
     3
 72
    15
 73
    11
 74
     0
 42
0.00000001
 43
0.00000001
 40
0.0
 40
0.0
 40
0.0
 40
0.0
 40
0.051441788906802
 40
0.1944123873180158
 40
0.3374333738605461
 40
0.4805859163227924
 40
0.6237949564775208
 40
0.7669392750545322
 40
0.91000256186331
 40
1.0
 40
1.0
 40
1.0
 40
1.0
 10
-674.9209302730808
 20
311.6666365770561
 30
0.0
 10
-674.8964420234452
 20
311.6677499114431
 30
0.0
 10
-674.8038943268336
 20
311.6719575022107
 30
0.0
 10
-675.4634236792476
 20
311.6418160435238
 30
0.0
 10
-676.8249592297573
 20
311.5862964822247
 30
0.0
 10
-678.8022329446444
 20
311.5208395035488
 30
0.0
 10
-681.1102702642182
 20
311.4678176100623
 30
0.0
 10
-683.4941292473793
 20
311.4392122620886
 30
0.0
 10
-685.4466795810188
 20
311.43658097297
 30
0.0
 10
-686.407190959957
 20
311.443130115338
 30
0.0
 10
-686.7780967117769
 20
311.4456590958655
 30
0.0
  0
LINE
  5
C9
330
1F
100
AcDbEntity
  8
0
  6
Continuous
 62
     7
370
    25
100
AcDbLine
 10
-413.829527369
 20
311.3949519231
 30
0.0
 11
-413.829527369
 21
-119.6050480769
 31
0.0
  0
SPLINE
  5
CA
330
1F
100
AcDbEntity
  8
0
  6
Continuous
 62
     7
370
    25
100
AcDbSpline
210
0.0
220
0.0
230
1.0
 70
     8
 71
     3
 72
     9
 73
     5
 74
     0
 42
0.00000001
 43
0.00000001
 40
0.0
 40
0.0
 40
0.0
 40
0.0
 40
0.5693066748090566
 40
1.0
 40
1.0
 40
1.0
 40
1.0
 10
-431.6346749716632
 20
311.6192989479511
 30
0.0
 10
-432.0294093618564
 20
311.6360582040059
 30
0.0
 10
-432.7227692110547
 20
311.6654962148293
 30
0.0
 10
-432.7463637226861
 20
311.6668850222498
 30
0.0
 10
-432.7565257213568
 20
311.6674831723358
 30
0.0
  0
SPLINE
  5
CB
330
1F
100
AcDbEntity
  8
0
  6
Continuous
 62
     7
370
    25
100
AcDbSpline
210
0.0
220
0.0
230
1.0
 70
     8
 71
     3
 72
    15
 73
    11
 74
     0
 42
0.00000001
 43
0.00000001
 40
0.0
 40
0.0
 40
0.0
 40
0.0
 40
0.1224854026185021
 40
0.2548186441106964
 40
0.3871705705144606
 40
0.5195147395694525
 40
0.6518183706845285
 40
0.784118503742196
 40
0.9164897564005641
 40
1.0
 40
1.0
 40
1.0
 40
1.0
 10
-418.8567616443547
 20
311.4713953182409
 30
0.0
 10
-418.9122423446195
 20
311.4703716797653
 30
0.0
 10
-419.0276643991137
 20
311.4682421021762
 30
0.0
 10
-420.1618600105549
 20
311.4510580193171
 30
0.0
 10
-421.896694865812
 20
311.4367615218311
 30
0.0
 10
-424.0921140260592
 20
311.4387019450822
 30
0.0
 10
-426.4807714304161
 20
311.4666417895485
 30
0.0
 10
-428.7867883384295
 20
311.5189028216399
 30
0.0
 10
-430.5502873825781
 20
311.576563158762
 30
0.0
 10
-431.3322034613808
 20
311.6073785250052
 30
0.0
 10
-431.6346749716632
 20
311.6192989479511
 30
0.0
  0
LINE
  5
CC
330
1F
100
AcDbEntity
  8
0
  6
Continuous
 62
     7
370
    25
100
AcDbLine
 10
-418.829527369
 20
314.0949519231
 30
0.0
 11
-432.829527369
 21
314.0949519231
 31
0.0
  0
LINE
  5
CD
330
1F
100
AcDbEntity
  8
0
  6
Continuous
 62
     7
370
    25
100
AcDbLine
 10
-674.829527369
 20
314.0949519231
 30
0.0
 11
-688.829527369
 21
314.0949519231
 31
0.0
  0
LINE
  5
CE
330
1F
100
AcDbEntity
  8
0
  6
Continuous
 62
     1
370
    25
100
AcDbLine
 10
-566.329527369
 20
312.3949519231
 30
0.0
 11
-566.329527369
 21
-120.6050480769
 31
0.0
  0
LINE
  5
CF
330
1F
100
AcDbEntity
  8
0
  6
Continuous
 62
     1
370
    25
100
AcDbLine
 10
-541.329527369
 20
312.3949519231
 30
0.0
 11
-541.329527369
 21
-120.6050480769
 31
0.0
  0
LINE
  5
D0
330
1F
100
AcDbEntity
  8
0
  6
Continuous
 62
     7
370
    25
100
AcDbLine
 10
-85.8929086538
 20
-522.6687004425
 30
0.0
 11
-85.8929086538
 21
-547.6687004425
 31
0.0
  0
LINE
  5
D1
330
1F
100
AcDbEntity
  8
0
  6
Continuous
 62
     7
370
    25
100
AcDbLine
 10
347.1070913462
 20
-547.6687004425
 30
0.0
 11
347.1070913462
 21
-522.6687004425
 31
0.0
  0
ARC
  5
D2
330
1F
100
AcDbEntity
  8
0
  6
Continuous
 62
     7
370
    25
100
AcDbCircle
 10
-7781.5179086539
 20
-547.6687004425
 30
0.0
 40
8128.62500000007
100
AcDbArc
 50
359.1012611026
 51
0.0
  0
ARC
  5
D3
330
1F
100
AcDbEntity
  8
0
  6
Continuous
 62
     7
370
    25
100
AcDbCircle
 10
8042.7320913462
 20
-547.6687004425
 30
0.0
 40
8128.625000000071
100
AcDbArc
 50
180.0
 51
180.8987388974
  0
ARC
  5
D4
330
1F
100
AcDbEntity
  8
0
  6
Continuous
 62
     7
370
    25
100
AcDbCircle
 10
-7781.5179086539
 20
-522.6687004425
 30
0.0
 40
8128.62500000007
100
AcDbArc
 50
0.0
 51
0.8987388974
  0
ARC
  5
D5
330
1F
100
AcDbEntity
  8
0
  6
Continuous
 62
     7
370
    25
100
AcDbCircle
 10
8042.7320913462
 20
-522.6687004425
 30
0.0
 40
8128.62500000007
100
AcDbArc
 50
179.1012611026
 51
180.0
  0
CIRCLE
  5
D6
330
1F
100
AcDbEntity
  8
0
  6
Continuous
 62
     7
370
    25
100
AcDbCircle
 10
130.6070913462
 20
-407.1687004425
 30
0.0
 40
7.000000000000057
  0
CIRCLE
  5
D7
330
1F
100
AcDbEntity
  8
0
  6
Continuous
 62
     7
370
    25
100
AcDbCircle
 10
130.6070913462
 20
-407.1687004425
 30
0.0
 40
5.0
  0
CIRCLE
  5
D8
330
1F
100
AcDbEntity
  8
0
  6
Continuous
 62
     7
370
    25
100
AcDbCircle
 10
130.6070913462
 20
-663.1687004425
 30
0.0
 40
7.0
  0
CIRCLE
  5
D9
330
1F
100
AcDbEntity
  8
0
  6
Continuous
 62
     7
370
    25
100
AcDbCircle
 10
130.6070913462
 20
-663.1687004425
 30
0.0
 40
5.0
  0
LINE
  5
DA
330
1F
100
AcDbEntity
  8
0
  6
Continuous
 62
     7
370
    25
100
AcDbLine
 10
-84.8929086538
 20
-675.1687004425
 30
0.0
 11
346.1070913462
 21
-675.1687004425
 31
0.0
  0
LINE
  5
DB
330
1F
100
AcDbEntity
  8
0
  6
Continuous
 62
     7
370
    25
100
AcDbLine
 10
-84.8929086538
 20
-395.1687004425
 30
0.0
 11
346.1070913462
 21
-395.1687004425
 31
0.0
  0
LINE
  5
DC
330
1F
100
AcDbEntity
  8
0
  6
Continuous
 62
     1
370
    25
100
AcDbLine
 10
-85.8929086538
 20
-547.6687004425
 30
0.0
 11
347.1070913462
 21
-547.6687004425
 31
0.0
  0
LINE
  5
DD
330
1F
100
AcDbEntity
  8
0
  6
Continuous
 62
     1
370
    25
100
AcDbLine
 10
-85.8929086538
 20
-522.6687004425
 30
0.0
 11
347.1070913462
 21
-522.6687004425
 31
0.0
  0
INSERT
  5
E9
330
1F
100
AcDbEntity
  8
FORMAT
 62
     7
100
AcDbBlockReference
  2
SW_CENTERMARKSYMBOL_1
 10
130.6070913462
 20
-407.1687004425
 30
0.0
  0
INSERT
  5
F5
330
1F
100
AcDbEntity
  8
FORMAT
 62
     7
100
AcDbBlockReference
  2
SW_CENTERMARKSYMBOL_2
 10
130.6070913462
 20
-663.1687004425
 30
0.0
  0
SPLINE
  5
F6
330
1F
100
AcDbEntity
  8
0
  6
Continuous
 62
     7
370
    25
100
AcDbSpline
210
0.0
220
0.0
230
1.0
 70
     8
 71
     3
 72
    11
 73
     7
 74
     0
 42
0.00000001
 43
0.00000001
 40
0.0
 40
0.0
 40
0.0
 40
0.0
 40
0.0624674573802754
 40
0.45724118798696
 40
0.851974642631682
 40
1.0
 40
1.0
 40
1.0
 40
1.0
 10
642.8813188963959
 20
-311.3048284962391
 30
0.0
 10
640.9755560042396
 20
-312.3971964996576
 30
0.0
 10
627.0260001014539
 20
-320.3929700519791
 30
0.0
 10
601.1936328387603
 20
-335.5676477270524
 30
0.0
 10
572.8165290964234
 20
-352.3483265877309
 30
0.0
 10
556.4947135391733
 20
-362.2362335566432
 30
0.0
 10
552.0433024753883
 20
-364.9329395894193
 30
0.0
  0
SPLINE
  5
F7
330
1F
100
AcDbEntity
  8
0
  6
Continuous
 62
     7
370
    25
100
AcDbSpline
210
0.0
220
0.0
230
1.0
 70
     8
 71
     3
 72
    10
 73
     6
 74
     0
 42
0.00000001
 43
0.00000001
 40
0.0
 40
0.0
 40
0.0
 40
0.0
 40
0.2728370472198706
 40
0.6676608267202728
 40
1.0
 40
1.0
 40
1.0
 40
1.0
 10
767.4780104822245
 20
-738.1152545333932
 30
0.0
 10
775.8755788206299
 20
-733.4777875691316
 30
0.0
 10
796.4253079589223
 20
-722.1294202605245
 30
0.0
 10
827.0530717470134
 20
-704.8535269433149
 30
0.0
 10
849.2140589395067
 20
-692.097610167163
 30
0.0
 10
859.3424134361951
 20
-686.2677053025058
 30
0.0
  0
LINE
  5
F8
330
1F
100
AcDbEntity
  8
0
  6
Continuous
 62
     7
370
    25
100
AcDbLine
 10
660.5483107303
 20
-301.0815995111
 30
0.0
 11
642.8706412006
 21
-311.2867009089
 31
0.0
  0
LINE
  5
F9
330
1F
100
AcDbEntity
  8
0
  6
Continuous
 62
     7
370
    25
100
AcDbLine
 10
859.3530468164
 20
-686.2858583197
 30
0.0
 11
877.030716346
 21
-676.080756922
 31
0.0
  0
SPLINE
  5
FA
330
1F
100
AcDbEntity
  8
0
  6
Continuous
 62
     7
370
    25
100
AcDbSpline
210
0.0
220
0.0
230
1.0
 70
     8
 71
     3
 72
    10
 73
     6
 74
     0
 42
0.00000001
 43
0.00000001
 40
0.0
 40
0.0
 40
0.0
 40
0.0
 40
0.2728360563606496
 40
0.6676606368415599
 40
1.0
 40
1.0
 40
1.0
 40
1.0
 10
752.4232045593849
 20
-249.2522822228416
 30
0.0
 10
744.0256837731673
 20
-253.8897229717962
 30
0.0
 10
723.4760022141984
 20
-265.2380641150551
 30
0.0
 10
692.8483006299962
 20
-282.5139225151379
 30
0.0
 10
670.6873281734016
 20
-295.2698307504433
 30
0.0
 10
660.5589884260596
 20
-301.0997270984552
 30
0.0
  0
SPLINE
  5
FB
330
1F
100
AcDbEntity
  8
0
  6
Continuous
 62
     7
370
    25
100
AcDbSpline
210
0.0
220
0.0
230
1.0
 70
     8
 71
     3
 72
    11
 73
     7
 74
     0
 42
0.00000001
 43
0.00000001
 40
0.0
 40
0.0
 40
0.0
 40
0.0
 40
0.0624669738407142
 40
0.4572407094464884
 40
0.851974169088749
 40
1.0
 40
1.0
 40
1.0
 40
1.0
 10
877.0200829658579
 20
-676.0626039047226
 30
0.0
 10
878.9258310784635
 20
-674.9702443646581
 30
0.0
 10
892.8753721792705
 20
-666.9744792369394
 30
0.0
 10
918.707724702009
 20
-651.7998100921533
 30
0.0
 10
947.0848426883618
 20
-635.0191227387843
 30
0.0
 10
963.4066724068086
 20
-625.1312071398792
 30
0.0
 10
967.858097648376
 20
-622.43449250416
 30
0.0
  0
LINE
  5
FC
330
1F
100
AcDbEntity
  8
0
  6
Continuous
 62
     7
370
    25
100
AcDbLine
 10
676.4410107815
 20
-369.8131593464
 30
0.0
 11
676.4410107815
 21
-367.7646429186
 31
0.0
  0
LINE
  5
FD
330
1F
100
AcDbEntity
  8
0
  6
Continuous
 62
     7
370
    25
100
AcDbLine
 10
662.4410107815
 20
-367.7646429186
 30
0.0
 11
662.4410107815
 21
-369.9272995228
 31
0.0
  0
LINE
  5
FE
330
1F
100
AcDbEntity
  8
0
  6
Continuous
 62
     7
370
    25
100
AcDbLine
 10
857.4603467652
 20
-265.4267733338
 30
0.0
 11
857.4603467652
 21
-263.2644046053
 31
0.0
  0
LINE
  5
FF
330
1F
100
AcDbEntity
  8
0
  6
Continuous
 62
     7
370
    25
100
AcDbLine
 10
843.4603467652
 20
-263.2644046053
 30
0.0
 11
843.4603467652
 21
-265.3128098279
 31
0.0
  0
LWPOLYLINE
  5
100
330
1F
100
AcDbEntity
  8
0
  6
Continuous
 62
     7
370
    25
100
AcDbPolyline
 90
      156
 70
   128
 43
0.0
 10
508.5742180615
 20
-462.8643226941
 10
508.699399273
 20
-455.8055232863
 10
509.0747372352
 20
-448.9028526178
 10
509.6996152686
 20
-442.1676517583
 10
510.5730067004
 20
-435.6109866251
 10
511.6934765508
 20
-429.243629802
 10
513.0591838907
 20
-423.0760428394
 10
514.6678848665
 20
-417.1183590665
 10
516.5169363867
 20
-411.380366942
 10
518.6033004647
 20
-405.8714939721
 10
520.9235492096
 20
-400.6007912205
 10
523.4738704589
 20
-395.576918438
 10
526.2500740414
 20
-390.8081298344
 10
529.247598662
 20
-386.3022605168
 10
532.4615193955
 20
-382.0667136167
 10
535.8865557788
 20
-378.1084481266
 10
539.5170804858
 20
-374.4339674662
 10
543.3471285742
 20
-371.0493087976
 10
547.370407285
 20
-367.9600331061
 10
551.5803063817
 20
-365.1712160636
 10
555.9699090113
 20
-362.6874396892
 10
560.5320030681
 20
-360.5127848208
 10
565.2590930436
 20
-358.6508244108
 10
570.1434123413
 20
-357.1046176553
 10
575.1769360376
 20
-355.8767049678
 10
580.3513940661
 20
-354.9691038056
 10
585.6582848059
 20
-354.3833053552
 10
591.0888890495
 20
-354.1202720818
 10
596.6342843284
 20
-354.1804361483
 10
602.2853595726
 20
-354.5636987055
 10
608.0328300804
 20
-355.2694300539
 10
613.8672527729
 20
-356.2964706787
 10
619.7790417088
 20
-357.643133155
 10
625.7584838344
 20
-359.3072049198
 10
631.7957549421
 20
-361.2859519075
 10
637.8809358113
 20
-363.5761230421
 10
644.0040285058
 20
-366.1739555784
 10
650.1549728004
 20
-369.0751812843
 10
656.3236627097
 20
-372.2750334537
 10
662.4999630924
 20
-375.7682547378
 10
668.6737263033
 20
-379.5491057833
 10
674.8348088655
 20
-383.6113746617
 10
680.9730881366
 20
-387.948387076
 10
687.0784789398
 20
-392.5530173263
 10
693.1409501342
 20
-397.417700017
 10
699.1505410954
 20
-402.5344424872
 10
705.0973780813
 20
-407.8948379427
 10
710.9716904544
 20
-413.4900792676
 10
716.7638267348
 20
-419.3109734952
 10
722.4642704578
 20
-425.3479569115
 10
728.0636558094
 20
-431.5911107687
 10
733.5527830141
 20
-438.0301775814
 10
738.9226334503
 20
-444.6545779796
 10
744.164384468
 20
-451.453428091
 10
749.2694238838
 20
-458.4155574226
 10
754.2293641316
 20
-465.5295272142
 10
759.0360560424
 20
-472.7836492322
 10
763.681602234
 20
-480.1660049731
 10
768.1583700864
 20
-487.6644652459
 10
772.4590042816
 20
-495.2667100999
 10
776.576438889
 20
-502.9602490669
 10
780.5039089743
 20
-510.7324416825
 10
784.2349617144
 20
-518.5705182547
 10
787.7634669996
 20
-526.4616008442
 10
791.0836275049
 20
-534.3927244231
 10
794.1899882153
 20
-542.3508581761
 10
797.0774453884
 20
-550.3229269105
 10
799.7412549395
 20
-558.2958325381
 10
802.1770402365
 20
-566.256475596
 10
804.3807992907
 20
-574.1917767686
 10
806.3489113317
 20
-582.0886983768
 10
808.0781427566
 20
-589.9342657992
 10
809.5656524426
 20
-597.7155887892
 10
810.8089964153
 20
-605.4198826534
 10
811.8061318638
 20
-613.0344892573
 10
812.5554204971
 20
-620.5468978222
 10
813.0556312361
 20
-627.9447654806
 10
813.3059422357
 20
-635.2159375553
 10
813.3059422357
 20
-642.3484675298
 10
813.0556312361
 20
-649.3306366759
 10
812.5554204971
 20
-656.1509733082
 10
811.8061318638
 20
-662.7982716315
 10
810.8089964153
 20
-669.261610152
 10
809.5656524426
 20
-675.5303696215
 10
808.0781427566
 20
-681.5942504847
 10
806.3489113317
 20
-687.4432898013
 10
804.3807992907
 20
-693.067877615
 10
802.1770402365
 20
-698.4587727428
 10
799.7412549395
 20
-703.6071179581
 10
797.0774453884
 20
-708.5044545434
 10
794.1899882153
 20
-713.1427361874
 10
791.0836275049
 20
-717.5143422056
 10
787.7634669996
 20
-721.6120900608
 10
784.2349617144
 20
-725.429247164
 10
780.5039089743
 20
-728.9595419361
 10
776.576438889
 20
-732.197174112
 10
772.4590042816
 20
-735.1368242707
 10
768.1583700864
 20
-737.7736625746
 10
763.681602234
 20
-740.1033567053
 10
759.0360560424
 20
-742.1220789815
 10
754.2293641316
 20
-743.8265126477
 10
749.2694238838
 20
-745.213857324
 10
744.164384468
 20
-746.2818336066
 10
738.9226334503
 20
-747.0286868134
 10
733.5527830141
 20
-747.4531898664
 10
728.0636558094
 20
-747.5546453084
 10
722.4642704578
 20
-747.3328864482
 10
716.7638267348
 20
-746.788277635
 10
710.9716904544
 20
-745.9217136598
 10
705.0973780813
 20
-744.7346182849
 10
699.1505410954
 20
-743.2289419049
 10
693.1409501342
 20
-741.407158342
 10
687.0784789398
 20
-739.2722607819
 10
680.9730881366
 20
-736.8277568557
 10
674.8348088655
 20
-734.077662877
 10
668.6737263033
 20
-731.0264972428
 10
662.4999630924
 20
-727.6792730104
 10
656.3236627097
 20
-724.0414896603
 10
650.1549728004
 20
-720.1191240611
 10
644.0040285058
 20
-715.918620649
 10
637.8809358113
 20
-711.4468808403
 10
631.7957549421
 20
-706.7112516917
 10
625.7584838344
 20
-701.7195138294
 10
619.7790417088
 20
-696.4798686656
 10
613.8672527729
 20
-691.0009249236
 10
608.0328300804
 20
-685.2916844935
 10
602.2853595726
 20
-679.3615276425
 10
596.6342843284
 20
-673.2201976025
 10
591.0888890495
 20
-666.8777845628
 10
585.6582848059
 20
-660.3447090913
 10
580.3513940661
 20
-653.6317050139
 10
575.1769360376
 20
-646.7498017787
 10
570.1434123413
 20
-639.7103063345
 10
565.2590930436
 20
-632.5247845539
 10
560.5320030681
 20
-625.2050422304
 10
555.9699090113
 20
-617.7631056813
 10
551.5803063817
 20
-610.2112019889
 10
547.370407285
 20
-602.561738911
 10
543.3471285742
 20
-594.8272844956
 10
539.5170804858
 20
-587.0205464307
 10
535.8865557788
 20
-579.1543511667
 10
532.4615193955
 20
-571.2416228416
 10
529.247598662
 20
-563.2953620473
 10
526.2500740414
 20
-555.3286244694
 10
523.4738704589
 20
-547.3544994369
 10
520.9235492096
 20
-539.3860884163
 10
518.6033004647
 20
-531.4364834858
 10
516.5169363867
 20
-523.5187458256
 10
514.6678848665
 20
-515.6458842579
 10
513.0591838907
 20
-507.8308338734
 10
511.6934765508
 20
-500.0864347796
 10
510.5730067004
 20
-492.4254110037
 10
509.6996152686
 20
-484.8603495877
 10
509.0747372352
 20
-477.4036799077
 10
508.699399273
 20
-470.0676532523
 10
508.5742180615
 20
-462.8643226941
  0
SPLINE
  5
101
330
1F
100
AcDbEntity
  8
0
  6
Continuous
 62
     7
370
    25
100
AcDbSpline
210
0.0
220
0.0
230
1.0
 70
     8
 71
     3
 72
    12
 73
     8
 74
     0
 42
0.00000001
 43
0.00000001
 40
0.0
 40
0.0
 40
0.0
 40
0.0
 40
0.2147140804878329
 40
0.4294285853725378
 40
0.6441253144433264
 40
0.8588049198176139
 40
1.0
 40
1.0
 40
1.0
 40
1.0
 10
669.4426767042761
 20
-373.9689125048298
 30
0.0
 10
668.6559576153995
 20
-373.9200114607575
 30
0.0
 10
667.0825178826434
 20
-373.8222092759567
 30
0.0
 10
664.9805539831272
 20
-373.116218860774
 30
0.0
 10
663.412269096634
 20
-372.0924132116087
 30
0.0
 10
662.5229644266485
 20
-370.9703007721008
 30
0.0
 10
662.5283054425344
 20
-370.221610599342
 30
0.0
 10
662.530424517582
 20
-369.9245639892155
 30
0.0
  0
SPLINE
  5
102
330
1F
100
AcDbEntity
  8
0
  6
Continuous
 62
     7
370
    25
100
AcDbSpline
210
0.0
220
0.0
230
1.0
 70
     8
 71
     3
 72
    13
 73
     9
 74
     0
 42
0.00000001
 43
0.00000001
 40
0.0
 40
0.0
 40
0.0
 40
0.0
 40
0.0059810906380387
 40
0.2207464116138707
 40
0.4355964935366731
 40
0.6503494765873676
 40
0.8649808913206952
 40
1.0
 40
1.0
 40
1.0
 40
1.0
 10
676.4303289752562
 20
-369.814148491724
 30
0.0
 10
676.4338754040614
 20
-369.8269932663558
 30
0.0
 10
676.5647648153986
 20
-370.3010603018748
 30
0.0
 10
676.0922165282981
 20
-371.270472026603
 30
0.0
 10
674.9844590738959
 20
-372.51316315768
 30
0.0
 10
673.1608095915323
 20
-373.4421485276928
 30
0.0
 10
671.2141563383877
 20
-373.9116214822726
 30
0.0
 10
669.9361749253404
 20
-373.9529523903749
 30
0.0
 10
669.4426767042761
 20
-373.9689125048298
 30
0.0
  0
LWPOLYLINE
  5
103
330
1F
100
AcDbEntity
  8
0
  6
Continuous
 62
     7
370
    25
100
AcDbPolyline
 90
      142
 70
   128
 43
0.0
 10
534.9493009998
 20
-478.0903339796
 10
535.0743880497
 20
-471.6806409702
 10
535.4494008508
 20
-465.4280962467
 10
536.0735948498
 20
-459.3451136579
 10
536.9457307673
 20
-453.4437704027
 10
538.0640770583
 20
-447.7357830518
 10
539.4264133495
 20
-442.2324842858
 10
541.0300348486
 20
-436.9448003949
 10
542.8717577133
 20
-431.8832295861
 10
544.9479253734
 20
-427.0578211397
 10
547.2544157903
 20
-422.4781554575
 10
549.7866496406
 20
-418.1533250418
 10
552.5395994085
 20
-414.091916443
 10
555.5077993671
 20
-410.3019932121
 10
558.68535643
 20
-406.7910798907
 10
562.0659618519
 20
-403.5661470722
 10
565.6429037536
 20
-400.6335975624
 10
569.409080448
 20
-397.9992536667
 10
573.35701454
 20
-395.6683456311
 10
577.4788677719
 20
-393.6455012579
 10
581.7664565855
 20
-391.9347367171
 10
586.2112683702
 20
-390.5394485735
 10
590.8044783637
 20
-389.4624070426
 10
595.5369671725
 20
-388.7057504905
 10
600.3993388784
 20
-388.2709811889
 10
605.3819396922
 20
-388.158962332
 10
610.4748771214
 20
-388.3699163227
 10
615.6680396101
 20
-388.9034243315
 10
620.9511166148
 20
-389.7584271277
 10
626.3136190753
 20
-390.9332271822
 10
631.7449002391
 20
-392.4254920385
 10
637.2341768004
 20
-394.2322589426
 10
642.7705503087
 20
-396.3499407262
 10
648.3430288067
 20
-398.7743329281
 10
653.9405486543
 20
-401.500622142
 10
659.5519964939
 20
-404.523395573
 10
665.1662313153
 20
-407.8366517843
 10
670.7721065749
 20
-411.4338126124
 10
676.3584923262
 20
-415.3077362273
 10
681.9142973175
 20
-419.4507313125
 10
687.4284910123
 20
-423.8545723345
 10
692.8901254894
 20
-428.5105158747
 10
698.288357179
 20
-433.4093179882
 10
703.6124683918
 20
-438.5412525568
 10
708.8518885979
 20
-443.8961305995
 10
713.9962154133
 20
-449.4633205016
 10
719.0352352535
 20
-455.2317691229
 10
723.9589436109
 20
-461.1900237425
 10
728.7575649184
 20
-467.3262547975
 10
733.4215719575
 20
-473.6282793691
 10
737.941704774
 20
-480.0835853709
 10
742.3089890625
 20
-486.6793563903
 10
746.5147539844
 20
-493.4024971344
 10
750.5506493828
 20
-500.2396594298
 10
754.4086623608
 20
-507.1772687234
 10
758.0811331908
 20
-514.2015510343
 10
761.560770522
 20
-521.2985603001
 10
764.8406658565
 20
-528.4542060658
 10
767.9143072658
 20
-535.6542814591
 10
770.7755923192
 20
-542.8844913968
 10
773.4188402003
 20
-550.1304809664
 10
775.8388029849
 20
-557.3778639262
 10
778.0306760611
 20
-564.6122512683
 10
779.9901076676
 20
-571.8192797862
 10
781.7132075345
 20
-578.9846405919
 10
783.1965546064
 20
-586.0941075248
 10
784.4372038349
 20
-593.1335653964
 10
785.432692026
 20
-600.0890380147
 10
786.18104273
 20
-606.9467159326
 10
786.6807701658
 20
-613.6929838654
 10
786.9308821708
 20
-620.3144477225
 10
786.9308821708
 20
-626.7979612005
 10
786.6807701658
 20
-633.1306518834
 10
786.18104273
 20
-639.2999468001
 10
785.432692026
 20
-645.2935973865
 10
784.4372038349
 20
-651.0997038043
 10
783.1965546064
 20
-656.7067385665
 10
781.7132075345
 20
-662.1035694247
 10
779.9901076676
 20
-667.2794814708
 10
778.0306760611
 20
-672.2241984104
 10
775.8388029849
 20
-676.9279029659
 10
773.4188402003
 20
-681.3812563671
 10
770.7755923192
 20
-685.5754168933
 10
767.9143072658
 20
-689.5020574267
 10
764.8406658565
 20
-693.1533819862
 10
761.560770522
 20
-696.5221412049
 10
758.0811331908
 20
-699.601646723
 10
754.4086623608
 20
-702.3857844675
 10
750.5506493828
 20
-704.8690267906
 10
746.5147539844
 20
-707.0464434445
 10
742.3089890625
 20
-708.91371137
 10
737.941704774
 20
-710.4671232794
 10
733.4215719575
 20
-711.7035950173
 10
728.7575649184
 20
-712.6206716834
 10
723.9589436109
 20
-713.2165325069
 10
719.0352352535
 20
-713.4899944613
 10
713.9962154133
 20
-713.4405146132
 10
708.8518885979
 20
-713.0681912002
 10
703.6124683918
 20
-712.3737634361
 10
698.288357179
 20
-711.3586100428
 10
692.8901254893
 20
-710.0247465135
 10
687.4284910123
 20
-708.3748211107
 10
681.9142973175
 20
-706.4121096087
 10
676.3584923262
 20
-704.1405087893
 10
670.7721065748
 20
-701.5645287058
 10
665.1662313153
 20
-698.6892837282
 10
659.5519964939
 20
-695.5204823892
 10
653.9405486543
 20
-692.0644160506
 10
648.3430288067
 20
-688.3279464122
 10
642.7705503087
 20
-684.3184918885
 10
637.2341768004
 20
-680.0440128805
 10
631.7449002391
 20
-675.5129959704
 10
626.3136190753
 20
-670.7344370731
 10
620.9511166148
 20
-665.7178235748
 10
615.6680396101
 20
-660.4731154973
 10
610.4748771214
 20
-655.010725723
 10
605.3819396922
 20
-649.3414993211
 10
600.3993388784
 20
-643.476692016
 10
595.5369671725
 20
-637.4279478396
 10
590.8044783637
 20
-631.2072760137
 10
586.2112683702
 20
-624.8270271063
 10
581.7664565855
 20
-618.299868511
 10
577.4788677719
 20
-611.6387592971
 10
573.35701454
 20
-604.8569244803
 10
569.409080448
 20
-597.9678287659
 10
565.6429037536
 20
-590.9851498157
 10
562.0659618519
 20
-583.9227510924
 10
558.68535643
 20
-576.7946543351
 10
555.5077993671
 20
-569.6150117199
 10
552.5395994085
 20
-562.3980777628
 10
549.7866496406
 20
-555.158181018
 10
547.2544157903
 20
-547.9096956304
 10
544.9479253734
 20
-540.6670127969
 10
542.8717577133
 20
-533.4445121936
 10
541.0300348486
 20
-526.2565334271
 10
539.4264133495
 20
-519.1173475638
 10
538.0640770583
 20
-512.0411287964
 10
536.9457307673
 20
-505.0419263023
 10
536.0735948498
 20
-498.1336363501
 10
535.4494008508
 20
-491.3299747101
 10
535.0743880497
 20
-484.6444494228
 10
534.9493009998
 20
-478.0903339796
  0
LWPOLYLINE
  5
104
330
1F
100
AcDbEntity
  8
0
  6
Continuous
 62
     7
370
    25
100
AcDbPolyline
 90
       79
 70
   128
 43
0.0
 10
752.405960373
 20
-249.2232760873
 10
753.9598077435
 20
-248.390304034
 10
758.5219018003
 20
-246.2156491657
 10
763.2489917758
 20
-244.3536887557
 10
768.1333110736
 20
-242.8074820001
 10
773.1668347698
 20
-241.5795693126
 10
778.3412927983
 20
-240.6719681505
 10
783.6481835382
 20
-240.0861697
 10
789.0787877818
 20
-239.8231364266
 10
794.6241830606
 20
-239.8833004932
 10
800.2752583048
 20
-240.2665630503
 10
806.0227288127
 20
-240.9722943987
 10
811.8571515051
 20
-241.9993350236
 10
817.768940441
 20
-243.3459974998
 10
823.7483825667
 20
-245.0100692646
 10
829.7856536744
 20
-246.9888162523
 10
835.8708345436
 20
-249.2789873869
 10
841.9939272381
 20
-251.8768199232
 10
848.1448715326
 20
-254.7780456291
 10
854.3135614419
 20
-257.9778977985
 10
860.4898618247
 20
-261.4711190826
 10
866.6636250355
 20
-265.2519701281
 10
872.8247075977
 20
-269.3142390065
 10
878.9629868688
 20
-273.6512514209
 10
885.0683776721
 20
-278.2558816711
 10
891.1308488664
 20
-283.1205643618
 10
897.1404398277
 20
-288.2373068321
 10
903.0872768136
 20
-293.5977022875
 10
908.9615891866
 20
-299.1929436124
 10
914.753725467
 20
-305.01383784
 10
920.45416919
 20
-311.0508212563
 10
926.0535545416
 20
-317.2939751135
 10
931.5426817463
 20
-323.7330419262
 10
936.9125321826
 20
-330.3574423244
 10
942.1542832002
 20
-337.1562924358
 10
947.2593226161
 20
-344.1184217674
 10
952.2192628638
 20
-351.232391559
 10
957.0259547746
 20
-358.486513577
 10
961.6715009663
 20
-365.8688693179
 10
966.1482688186
 20
-373.3673295907
 10
970.4489030138
 20
-380.9695744447
 10
974.5663376212
 20
-388.6631134117
 10
978.4938077065
 20
-396.4353060273
 10
982.2248604467
 20
-404.2733825995
 10
985.7533657319
 20
-412.164465189
 10
989.0735262371
 20
-420.0955887679
 10
992.1798869476
 20
-428.0537225209
 10
995.0673441206
 20
-436.0257912553
 10
997.7311536717
 20
-443.9986968829
 10
1000.1669389688
 20
-451.9593399409
 10
1002.370698023
 20
-459.8946411134
 10
1004.338810064
 20
-467.7915627217
 10
1006.0680414888
 20
-475.6371301441
 10
1007.5555511748
 20
-483.418453134
 10
1008.7988951475
 20
-491.1227469982
 10
1009.796030596
 20
-498.7373536021
 10
1010.5453192294
 20
-506.249762167
 10
1011.0455299683
 20
-513.6476298254
 10
1011.295840968
 20
-520.9188019001
 10
1011.295840968
 20
-528.0513318746
 10
1011.0455299683
 20
-535.0335010208
 10
1010.5453192294
 20
-541.8538376531
 10
1009.796030596
 20
-548.5011359763
 10
1008.7988951475
 20
-554.9644744968
 10
1007.5555511748
 20
-561.2332339663
 10
1006.0680414888
 20
-567.2971148295
 10
1004.3388100639
 20
-573.1461541461
 10
1002.370698023
 20
-578.7707419598
 10
1000.1669389688
 20
-584.1616370876
 10
997.7311536717
 20
-589.309982303
 10
995.0673441206
 20
-594.2073188882
 10
992.1798869476
 20
-598.8456005322
 10
989.0735262371
 20
-603.2172065504
 10
985.7533657318
 20
-607.3149544056
 10
982.2248604467
 20
-611.1321115088
 10
978.4938077065
 20
-614.6624062809
 10
974.5663376212
 20
-617.9000384569
 10
970.4489030138
 20
-620.8396886155
 10
967.8752133428
 20
-622.4673757227
  0
SPLINE
  5
105
330
1F
100
AcDbEntity
  8
0
  6
Continuous
 62
     7
370
    25
100
AcDbSpline
210
0.0
220
0.0
230
1.0
 70
     8
 71
     3
 72
    12
 73
     8
 74
     0
 42
0.00000001
 43
0.00000001
 40
0.0
 40
0.0
 40
0.0
 40
0.0
 40
0.2446571623905945
 40
0.4893203333625832
 40
0.7338577973792977
 40
0.9784519975821073
 40
1.0
 40
1.0
 40
1.0
 40
1.0
 10
849.1213744859364
 20
-269.2522736450852
 30
0.0
 10
848.3652297624807
 20
-269.1087111256636
 30
0.0
 10
846.8529217452681
 20
-268.8215825610416
 30
0.0
 10
845.0104643595917
 20
-267.8992960704954
 30
0.0
 10
843.853001790011
 20
-266.7435951570017
 30
0.0
 10
843.3534307252031
 20
-265.8215196754182
 30
0.0
 10
843.4816987955712
 20
-265.3532791837793
 30
0.0
 10
843.4920839230077
 20
-265.3153684460358
 30
0.0
  0
SPLINE
  5
106
330
1F
100
AcDbEntity
  8
0
  6
Continuous
 62
     7
370
    25
100
AcDbSpline
210
0.0
220
0.0
230
1.0
 70
     8
 71
     3
 72
    13
 73
     9
 74
     0
 42
0.00000001
 43
0.00000001
 40
0.0
 40
0.0
 40
0.0
 40
0.0
 40
0.1145840193345645
 40
0.3057948793083557
 40
0.4969471700651709
 40
0.6880944068285229
 40
0.8793443971933974
 40
1.0
 40
1.0
 40
1.0
 40
1.0
 10
857.364929374282
 20
-265.424937195076
 30
0.0
 10
857.3747273908814
 20
-265.7000936149731
 30
0.0
 10
857.4008757431637
 20
-266.4344143754247
 30
0.0
 10
856.5600708883791
 20
-267.5477008493286
 30
0.0
 10
855.0296935134367
 20
-268.5769519588189
 30
0.0
 10
852.9536712422148
 20
-269.2223866895575
 30
0.0
 10
850.8844538081921
 20
-269.4195485133004
 30
0.0
 10
849.6131555342608
 20
-269.2989321300499
 30
0.0
 10
849.1213744859364
 20
-269.2522736450852
 30
0.0
  0
LWPOLYLINE
  5
107
330
1F
100
AcDbEntity
  8
0
  6
Continuous
 62
     7
370
    25
100
AcDbPolyline
 90
       29
 70
   128
 43
0.0
 10
674.3907582498
 20
-364.9072145272
 10
675.3680801761
 20
-365.6146938572
 10
676.0481940936
 20
-366.4299806104
 10
676.3969962507
 20
-367.3121929049
 10
676.3969962507
 20
-368.2170929323
 10
676.0481940936
 20
-369.0993052268
 10
675.3680801761
 20
-369.9145919801
 10
674.3907582498
 20
-370.62207131
 10
673.1652353171
 20
-371.1862672488
 10
671.7529642151
 20
-371.5788886562
 10
670.2247621142
 20
-371.7802478555
 10
668.6572594487
 20
-371.7802478555
 10
667.1290573478
 20
-371.5788886562
 10
665.7167862458
 20
-371.1862672488
 10
664.4912633131
 20
-370.62207131
 10
663.5139413869
 20
-369.9145919801
 10
662.8338274693
 20
-369.0993052268
 10
662.4850253122
 20
-368.2170929323
 10
662.4850253122
 20
-367.3121929049
 10
662.8338274693
 20
-366.4299806104
 10
663.5139413869
 20
-365.6146938572
 10
664.4912633131
 20
-364.9072145272
 10
665.7167862458
 20
-364.3430185884
 10
667.1290573478
 20
-363.950397181
 10
668.6572594487
 20
-363.7490379818
 10
670.2247621142
 20
-363.7490379818
 10
671.7529642151
 20
-363.950397181
 10
673.1652353171
 20
-364.3430185884
 10
674.3907582498
 20
-364.9072145272
  0
LWPOLYLINE
  5
108
330
1F
100
AcDbEntity
  8
0
  6
Continuous
 62
     7
370
    25
100
AcDbPolyline
 90
       24
 70
   128
 43
0.0
 10
672.9765446874
 20
-365.7236226391
 10
673.7993131316
 20
-366.3499698889
 10
674.2988462284
 20
-367.0812369656
 10
674.4380958933
 20
-367.8631891356
 10
674.2067346155
 20
-368.6378325834
 10
673.6219214027
 20
-369.3477155483
 10
672.7270291755
 20
-369.9401892584
 10
671.5884279966
 20
-370.3713126489
 10
670.2905627066
 20
-370.6091112703
 10
668.9296900367
 20
-370.6359486866
 10
667.6067396874
 20
-370.4498344894
 10
666.4198288338
 20
-370.0645719174
 10
665.4569852244
 20
-369.5087341329
 10
664.7896185648
 20
-368.8235450819
 10
664.4672243872
 20
-368.0598221015
 10
664.5137131929
 20
-367.2742070315
 10
664.9256371198
 20
-366.5249653476
 10
665.6724456548
 20
-365.867664878
 10
666.6987514252
 20
-365.3510545916
 10
667.928438027
 20
-365.01344911
 10
669.2703052305
 20
-364.8798870873
 10
670.6248328838
 20
-364.9602742077
 10
671.8915618673
 20
-365.2486485263
 10
672.9765446874
 20
-365.7236226391
  0
SPLINE
  5
109
330
1F
100
AcDbEntity
  8
0
  6
Continuous
 62
     7
370
    25
100
AcDbSpline
210
0.0
220
0.0
230
1.0
 70
     8
 71
     3
 72
    15
 73
    11
 74
     0
 42
0.00000001
 43
0.00000001
 40
0.0
 40
0.0
 40
0.0
 40
0.0
 40
0.0309072383465269
 40
0.1717287781380041
 40
0.3125499523773098
 40
0.4534132896167472
 40
0.5943219469899944
 40
0.7352128481143081
 40
0.8760241580405387
 40
1.0
 40
1.0
 40
1.0
 40
1.0
 10
664.8437318829364
 20
-368.8234101974401
 30
0.0
 10
664.8752141002026
 20
-368.7544117460957
 30
0.0
 10
665.0501376130567
 20
-368.3710381295359
 30
0.0
 10
665.8872422782556
 20
-367.7843817319587
 30
0.0
 10
667.2527589646892
 20
-367.1863959650286
 30
0.0
 10
668.90877436851
 20
-366.8900622987292
 30
0.0
 10
670.6167105244873
 20
-366.922364388264
 30
0.0
 10
672.1821583114129
 20
-367.2921766591916
 30
0.0
 10
673.4345303581449
 20
-367.9183023735226
 30
0.0
 10
673.8755165366254
 20
-368.4863395217512
 30
0.0
 10
674.0819904247284
 20
-368.7522998722227
 30
0.0
  0
LWPOLYLINE
  5
10A
330
1F
100
AcDbEntity
  8
0
  6
Continuous
 62
     7
370
    25
100
AcDbPolyline
 90
       29
 70
   128
 43
0.0
 10
845.5105992969
 20
-266.1218329967
 10
844.5332773706
 20
-265.4143536668
 10
843.8531634531
 20
-264.5990669135
 10
843.504361296
 20
-263.716854619
 10
843.504361296
 20
-262.8119545916
 10
843.8531634531
 20
-261.9297422971
 10
844.5332773706
 20
-261.1144555439
 10
845.5105992969
 20
-260.4069762139
 10
846.7361222296
 20
-259.8427802751
 10
848.1483933315
 20
-259.4501588677
 10
849.6765954325
 20
-259.2487996685
 10
851.2440980979
 20
-259.2487996685
 10
852.7723001989
 20
-259.4501588677
 10
854.1845713008
 20
-259.8427802751
 10
855.4100942335
 20
-260.4069762139
 10
856.3874161598
 20
-261.1144555439
 10
857.0675300774
 20
-261.9297422971
 10
857.4163322345
 20
-262.8119545916
 10
857.4163322345
 20
-263.716854619
 10
857.0675300774
 20
-264.5990669135
 10
856.3874161598
 20
-265.4143536668
 10
855.4100942335
 20
-266.1218329967
 10
854.1845713008
 20
-266.6860289355
 10
852.7723001989
 20
-267.0786503429
 10
851.2440980979
 20
-267.2800095422
 10
849.6765954325
 20
-267.2800095422
 10
848.1483933315
 20
-267.0786503429
 10
846.7361222296
 20
-266.6860289355
 10
845.5105992969
 20
-266.1218329967
  0
LWPOLYLINE
  5
10B
330
1F
100
AcDbEntity
  8
0
  6
Continuous
 62
     7
370
    25
100
AcDbPolyline
 90
       24
 70
   128
 43
0.0
 10
846.9248128593
 20
-265.3054248849
 10
846.102044415
 20
-264.679077635
 10
845.6025113182
 20
-263.9478105583
 10
845.4632616534
 20
-263.1658583884
 10
845.6946229311
 20
-262.3912149406
 10
846.2794361439
 20
-261.6813319756
 10
847.1743283711
 20
-261.0888582655
 10
848.3129295501
 20
-260.657734875
 10
849.6107948401
 20
-260.4199362536
 10
850.9716675099
 20
-260.3930988373
 10
852.2946178593
 20
-260.5792130345
 10
853.4815287128
 20
-260.9644756066
 10
854.4443723223
 20
-261.520313391
 10
855.1117389819
 20
-262.2055024421
 10
855.4341331595
 20
-262.9692254225
 10
855.3876443538
 20
-263.7548404925
 10
854.9757204268
 20
-264.5040821763
 10
854.2289118918
 20
-265.1613826459
 10
853.2026061215
 20
-265.6779929323
 10
851.9729195196
 20
-266.0155984139
 10
850.6310523161
 20
-266.1491604366
 10
849.2765246629
 20
-266.0687733162
 10
848.0097956793
 20
-265.7803989976
 10
846.9248128593
 20
-265.3054248849
  0
SPLINE
  5
10C
330
1F
100
AcDbEntity
  8
0
  6
Continuous
 62
     7
370
    25
100
AcDbSpline
210
0.0
220
0.0
230
1.0
 70
     8
 71
     3
 72
    15
 73
    11
 74
     0
 42
0.00000001
 43
0.00000001
 40
0.0
 40
0.0
 40
0.0
 40
0.0
 40
0.0386616289053266
 40
0.1795361684548067
 40
0.3203668429298796
 40
0.4611542286344698
 40
0.6019405154412941
 40
0.7427454723029167
 40
0.8835553536846386
 40
1.0
 40
1.0
 40
1.0
 40
1.0
 10
845.8250788616793
 20
-264.3453355249624
 30
0.0
 10
845.8626914819722
 20
-264.2618028349816
 30
0.0
 10
846.0373562833299
 20
-263.8738952500059
 30
0.0
 10
846.8796096368472
 20
-263.2981260664353
 30
0.0
 10
848.2421020199342
 20
-262.7343074351832
 30
0.0
 10
849.8942266088937
 20
-262.4663769339974
 30
0.0
 10
851.6030026622747
 20
-262.518364528109
 30
0.0
 10
853.1714693380762
 20
-262.8970305127841
 30
0.0
 10
854.4119215890445
 20
-263.5075922613791
 30
0.0
 10
854.8484702376246
 20
-264.0489045950939
 30
0.0
 10
855.0460712417289
 20
-264.2939262233226
 30
0.0
  0
LWPOLYLINE
  5
10D
330
1F
100
AcDbEntity
  8
0
  6
Continuous
 62
     1
370
    25
100
AcDbPolyline
 90
       80
 70
   128
 43
0.0
 10
642.8708352702
 20
-311.2865888753
 10
645.0636299869
 20
-310.0709970672
 10
649.5953126098
 20
-307.8594906897
 10
654.2916554179
 20
-305.9576682619
 10
659.1450409259
 20
-304.3686145469
 10
664.1475969248
 20
-303.0949069956
 10
669.2912092505
 20
-302.1386115663
 10
674.5675349451
 20
-301.5012793737
 10
679.9680157888
 20
-301.1839441729
 10
685.483892182
 20
-301.1871206828
 10
691.1062173531
 20
-301.5108037511
 10
696.8258718701
 20
-302.1544683627
 10
702.6335784324
 20
-303.1170704911
 10
708.5199169188
 20
-304.3970487923
 10
714.4753396666
 20
-305.9923271367
 10
720.4901869585
 20
-307.9003179771
 10
726.55470269
 20
-310.1179265453
 10
732.6590501946
 20
-312.6415558721
 10
738.7933281982
 20
-315.4671126215
 10
744.9475868796
 20
-318.5900137302
 10
751.1118440085
 20
-322.0051938411
 10
757.2761011374
 20
-325.7071135195
 10
763.4303598188
 20
-329.6897682383
 10
769.5646378224
 20
-333.9466981169
 10
775.668985327
 20
-338.4709983995
 10
781.7335010585
 20
-343.2553306545
 10
787.7483483504
 20
-348.2919346774
 10
793.7037710982
 20
-353.5726410782
 10
799.5901095846
 20
-359.0888845317
 10
805.3978161469
 20
-364.8317176709
 10
811.1174706639
 20
-370.7918255994
 10
816.739795835
 20
-376.9595410003
 10
822.2556722282
 20
-383.3248598168
 10
827.6561530719
 20
-389.8774574785
 10
832.9324787664
 20
-396.6067056479
 10
838.0760910922
 20
-403.5016894599
 10
843.0786470911
 20
-410.5512252257
 10
847.9320325991
 20
-417.7438785723
 10
852.6283754072
 20
-425.0679829897
 10
857.1600580301
 20
-432.5116587539
 10
861.5197300621
 20
-440.0628321954
 10
865.7003200991
 20
-447.7092552834
 10
869.6950472089
 20
-455.4385254916
 10
873.4974319295
 20
-463.2381059156
 10
877.1013067789
 20
-471.0953456073
 10
880.5008262589
 20
-478.9975000952
 10
883.6904763366
 20
-486.9317520558
 10
886.6650833879
 20
-494.8852321035
 10
889.4198225891
 20
-502.8450396646
 10
891.9502257434
 20
-510.798263902
 10
894.2521885274
 20
-518.7320046569
 10
896.3219771492
 20
-526.6333933729
 10
898.156234404
 20
-534.4896139685
 10
899.7519851199
 20
-542.2879236253
 10
901.1066409833
 20
-550.0156734564
 10
902.2180047375
 20
-557.6603290233
 10
903.0842737465
 20
-565.2094906668
 10
903.7040429186
 20
-572.6509136191
 10
904.0763069862
 20
-579.9725278649
 10
904.2004621354
 20
-587.1624577191
 10
904.0763069862
 20
-594.2090410893
 10
903.7040429186
 20
-601.1008483915
 10
903.0842737465
 20
-607.8267010889
 10
902.2180047375
 20
-614.3756898239
 10
901.1066409833
 20
-620.7371921129
 10
899.7519851199
 20
-626.9008895759
 10
898.156234404
 20
-632.856784673
 10
896.3219771492
 20
-638.5952169206
 10
894.2521885274
 20
-644.1068785607
 10
891.9502257434
 20
-649.3828296578
 10
889.4198225891
 20
-654.4145126001
 10
886.6650833879
 20
-659.1937659793
 10
883.6904763366
 20
-663.7128378291
 10
880.5008262589
 20
-667.9643981983
 10
877.1013067789
 20
-671.9415510406
 10
873.4974319295
 20
-675.6378453994
 10
869.6950472089
 20
-679.0472858717
 10
865.7003200991
 20
-682.1643423327
 10
861.5197300621
 20
-684.9839589054
 10
859.3529205146
 20
-686.285931232
  0
LWPOLYLINE
  5
10E
330
1F
100
AcDbEntity
  8
0
  6
Continuous
 62
     1
370
    25
100
AcDbPolyline
 90
       80
 70
   128
 43
0.0
 10
660.5483107303
 20
-301.0815995111
 10
662.7412995165
 20
-299.8658956695
 10
667.2729821395
 20
-297.6543892919
 10
671.9693249475
 20
-295.7525668641
 10
676.8227104556
 20
-294.1635131491
 10
681.8252664545
 20
-292.8898055978
 10
686.9688787802
 20
-291.9335101685
 10
692.2452044747
 20
-291.2961779759
 10
697.6456853184
 20
-290.9788427751
 10
703.1615617117
 20
-290.982019285
 10
708.7838868828
 20
-291.3057023533
 10
714.5035413998
 20
-291.9493669649
 10
720.3112479621
 20
-292.9119690933
 10
726.1975864484
 20
-294.1919473945
 10
732.1530091963
 20
-295.7872257389
 10
738.1678564881
 20
-297.6952165793
 10
744.2323722197
 20
-299.9128251475
 10
750.3367197243
 20
-302.4364544743
 10
756.4709977279
 20
-305.2620112237
 10
762.6252564092
 20
-308.3849123324
 10
768.7895135382
 20
-311.8000924433
 10
774.9537706671
 20
-315.5020121217
 10
781.1080293484
 20
-319.4846668405
 10
787.2423073521
 20
-323.7415967191
 10
793.3466548566
 20
-328.2658970017
 10
799.4111705882
 20
-333.0502292567
 10
805.4260178801
 20
-338.0868332796
 10
811.3814406279
 20
-343.3675396804
 10
817.2677791142
 20
-348.8837831339
 10
823.0754856765
 20
-354.6266162731
 10
828.7951401935
 20
-360.5867242016
 10
834.4174653646
 20
-366.7544396026
 10
839.9333417579
 20
-373.1197584191
 10
845.3338226016
 20
-379.6723560807
 10
850.6101482961
 20
-386.4016042501
 10
855.7537606218
 20
-393.2965880622
 10
860.7563166208
 20
-400.3461238279
 10
865.6097021288
 20
-407.5387771745
 10
870.3060449369
 20
-414.8628815919
 10
874.8377275598
 20
-422.3065573561
 10
879.1973995918
 20
-429.8577307976
 10
883.3779896288
 20
-437.5041538856
 10
887.3727167386
 20
-445.2334240939
 10
891.1751014591
 20
-453.0330045178
 10
894.7789763085
 20
-460.8902442095
 10
898.1784957886
 20
-468.7923986974
 10
901.3681458663
 20
-476.7266506581
 10
904.3427529175
 20
-484.6801307058
 10
907.0974921188
 20
-492.6399382668
 10
909.627895273
 20
-500.5931625042
 10
911.9298580571
 20
-508.5269032591
 10
913.9996466788
 20
-516.4282919751
 10
915.8339039337
 20
-524.2845125707
 10
917.4296546495
 20
-532.0828222275
 10
918.784310513
 20
-539.8105720586
 10
919.8956742672
 20
-547.4552276255
 10
920.7619432761
 20
-555.004389269
 10
921.3817124483
 20
-562.4458122213
 10
921.7539765158
 20
-569.7674264671
 10
921.878131665
 20
-576.9573563214
 10
921.7539765158
 20
-584.0039396915
 10
921.3817124483
 20
-590.8957469937
 10
920.7619432761
 20
-597.6215996911
 10
919.8956742672
 20
-604.1705884261
 10
918.784310513
 20
-610.5320907151
 10
917.4296546495
 20
-616.6957881781
 10
915.8339039337
 20
-622.6516832752
 10
913.9996466788
 20
-628.3901155228
 10
911.9298580571
 20
-633.9017771629
 10
909.627895273
 20
-639.17772826
 10
907.0974921188
 20
-644.2094112023
 10
904.3427529175
 20
-648.9886645815
 10
901.3681458663
 20
-653.5077364313
 10
898.1784957886
 20
-657.7592968006
 10
894.7789763085
 20
-661.7364496428
 10
891.1751014591
 20
-665.4327440016
 10
887.3727167386
 20
-668.8421844739
 10
883.3779896288
 20
-671.9592409349
 10
879.1973995918
 20
-674.7788575076
 10
877.030716346
 20
-676.080756922
  0
ENDSEC
  0
SECTION
  2
OBJECTS
  0
DICTIONARY
  5
C
330
0
100
AcDbDictionary
281
     1
  3
ACAD_GROUP
350
D
  3
ACAD_LAYOUT
350
1A
  3
ACAD_MLINESTYLE
350
17
  3
ACAD_PLOTSETTINGS
350
19
  3
ACAD_PLOTSTYLENAME
350
E
  3
ACAD_SCALELIST
350
47
  3
DWGPROPS
350
10F
  0
DICTIONARY
  5
D
102
{ACAD_REACTORS
330
C
102
}
330
C
100
AcDbDictionary
281
     1
  0
DICTIONARY
  5
1A
102
{ACAD_REACTORS
330
C
102
}
330
C
100
AcDbDictionary
281
     1
  3
Layout1
350
1E
  3
Layout2
350
26
  3
Model
350
22
  0
DICTIONARY
  5
17
102
{ACAD_REACTORS
330
C
102
}
330
C
100
AcDbDictionary
281
     1
  3
Standard
350
18
  0
DICTIONARY
  5
19
102
{ACAD_REACTORS
330
C
102
}
330
C
100
AcDbDictionary
281
     1
  0
ACDBDICTIONARYWDFLT
  5
E
102
{ACAD_REACTORS
330
C
102
}
330
C
100
AcDbDictionary
281
     1
  3
Normal
350
F
100
AcDbDictionaryWithDefault
340
F
  0
DICTIONARY
  5
47
102
{ACAD_REACTORS
330
C
102
}
330
C
100
AcDbDictionary
281
     1
  3
A0
350
48
  3
A1
350
49
  3
A2
350
4A
  3
A3
350
4B
  3
A4
350
4C
  3
A5
350
4D
  3
A6
350
4E
  3
A7
350
4F
  3
A8
350
50
  3
A9
350
51
  3
B0
350
52
  3
B1
350
53
  3
B2
350
54
  3
B3
350
55
  3
B4
350
56
  3
B5
350
57
  3
B6
350
58
  3
B7
350
59
  3
B8
350
5A
  3
B9
350
5B
  3
C0
350
5C
  3
C1
350
5D
  3
C2
350
5E
  3
C3
350
5F
  3
C4
350
60
  3
C5
350
61
  3
C6
350
62
  3
C7
350
63
  3
C8
350
64
  3
C9
350
65
  3
D0
350
66
  3
D1
350
67
  3
D2
350
68
  0
XRECORD
  5
10F
102
{ACAD_REACTORS
330
C
102
}
330
C
100
AcDbXrecord
280
     1
  1
DWGPROPS COOKIE
  2

  3

  4

  6

  7

  8
b.kav
  9

300
=
301
=
302
=
303
=
304
=
305
=
306
=
307
=
308
=
309
=
 40
0.0
 41
2459935.585443194
 42
2459935.58544338
  1

 90
        0
  0
LAYOUT
  5
1E
102
{ACAD_REACTORS
330
1A
102
}
330
1A
100
AcDbPlotSettings
  1

  2
none_device
  4

  6

 40
0.0
 41
0.0
 42
0.0
 43
0.0
 44
0.0
 45
0.0
 46
0.0
 47
0.0
 48
0.0
 49
0.0
140
0.0
141
0.0
142
1.0
143
1.0
 70
   688
 72
     1
 73
     0
 74
     5
  7

 75
    16
147
1.0
148
0.0
149
0.0
100
AcDbLayout
  1
Layout1
 70
     1
 71
     1
 10
0.0
 20
0.0
 11
420.0
 21
297.0
 12
0.0
 22
0.0
 32
0.0
 14
1.0000000000E+20
 24
1.0000000000E+20
 34
1.0000000000E+20
 15
-1.0000000000E+20
 25
-1.0000000000E+20
 35
-1.0000000000E+20
146
0.0
 13
0.0
 23
0.0
 33
0.0
 16
1.0
 26
0.0
 36
0.0
 17
0.0
 27
1.0
 37
0.0
 76
     0
330
1B
  0
LAYOUT
  5
26
102
{ACAD_REACTORS
330
1A
102
}
330
1A
100
AcDbPlotSettings
  1

  2
none_device
  4

  6

 40
0.0
 41
0.0
 42
0.0
 43
0.0
 44
0.0
 45
0.0
 46
0.0
 47
0.0
 48
0.0
 49
0.0
140
0.0
141
0.0
142
1.0
143
1.0
 70
   688
 72
     1
 73
     0
 74
     5
  7

 75
    16
147
1.0
148
0.0
149
0.0
100
AcDbLayout
  1
Layout2
 70
     1
 71
     2
 10
0.0
 20
0.0
 11
0.0
 21
0.0
 12
0.0
 22
0.0
 32
0.0
 14
0.0
 24
0.0
 34
0.0
 15
0.0
 25
0.0
 35
0.0
146
0.0
 13
0.0
 23
0.0
 33
0.0
 16
1.0
 26
0.0
 36
0.0
 17
0.0
 27
1.0
 37
0.0
 76
     0
330
23
  0
LAYOUT
  5
22
102
{ACAD_REACTORS
330
1A
102
}
330
1A
100
AcDbPlotSettings
  1

  2
none_device
  4
Letter_(8.50_x_11.00_Inches)
  6

 40
6.35
 41
6.35
 42
6.35000508
 43
6.35000508
 44
215.9
 45
279.4
 46
0.0
 47
0.0
 48
0.0
 49
0.0
140
0.0
141
0.0
142
1.0
143
1.0
 70
  1712
 72
     1
 73
     0
 74
     0
  7

 75
     0
147
1.0
148
0.0
149
0.0
100
AcDbLayout
  1
Model
 70
     1
 71
     0
 10
0.0
 20
0.0
 11
279.4
 21
215.9
 12
0.0
 22
0.0
 32
0.0
 14
0.0
 24
0.0
 34
0.0
 15
279.4
 25
215.9
 35
0.0
146
0.0
 13
0.0
 23
0.0
 33
0.0
 16
1.0
 26
0.0
 36
0.0
 17
0.0
 27
1.0
 37
0.0
 76
     0
330
1F
331
29
  0
MLINESTYLE
  5
18
102
{ACAD_REACTORS
330
17
102
}
330
17
100
AcDbMlineStyle
  2
Standard
 70
     0
  3

 62
   256
 51
90.0
 52
90.0
 71
     2
 49
0.5
 62
   256
  6
BYLAYER
 49
-0.5
 62
   256
  6
BYLAYER
  0
ACDBPLACEHOLDER
  5
F
102
{ACAD_REACTORS
330
E
102
}
330
E
  0
SCALE
  5
48
102
{ACAD_REACTORS
330
47
102
}
330
47
100
AcDbScale
 70
     0
300
1:1
140
1.0
141
1.0
290
     1
  0
SCALE
  5
49
102
{ACAD_REACTORS
330
47
102
}
330
47
100
AcDbScale
 70
     0
300
1:2
140
1.0
141
2.0
290
     0
  0
SCALE
  5
4A
102
{ACAD_REACTORS
330
47
102
}
330
47
100
AcDbScale
 70
     0
300
1:4
140
1.0
141
4.0
290
     0
  0
SCALE
  5
4B
102
{ACAD_REACTORS
330
47
102
}
330
47
100
AcDbScale
 70
     0
300
1:5
140
1.0
141
5.0
290
     0
  0
SCALE
  5
4C
102
{ACAD_REACTORS
330
47
102
}
330
47
100
AcDbScale
 70
     0
300
1:8
140
1.0
141
8.0
290
     0
  0
SCALE
  5
4D
102
{ACAD_REACTORS
330
47
102
}
330
47
100
AcDbScale
 70
     0
300
1:10
140
1.0
141
10.0
290
     0
  0
SCALE
  5
4E
102
{ACAD_REACTORS
330
47
102
}
330
47
100
AcDbScale
 70
     0
300
1:16
140
1.0
141
16.0
290
     0
  0
SCALE
  5
4F
102
{ACAD_REACTORS
330
47
102
}
330
47
100
AcDbScale
 70
     0
300
1:20
140
1.0
141
20.0
290
     0
  0
SCALE
  5
50
102
{ACAD_REACTORS
330
47
102
}
330
47
100
AcDbScale
 70
     0
300
1:30
140
1.0
141
30.0
290
     0
  0
SCALE
  5
51
102
{ACAD_REACTORS
330
47
102
}
330
47
100
AcDbScale
 70
     0
300
1:40
140
1.0
141
40.0
290
     0
  0
SCALE
  5
52
102
{ACAD_REACTORS
330
47
102
}
330
47
100
AcDbScale
 70
     0
300
1:50
140
1.0
141
50.0
290
     0
  0
SCALE
  5
53
102
{ACAD_REACTORS
330
47
102
}
330
47
100
AcDbScale
 70
     0
300
1:100
140
1.0
141
100.0
290
     0
  0
SCALE
  5
54
102
{ACAD_REACTORS
330
47
102
}
330
47
100
AcDbScale
 70
     0
300
2:1
140
2.0
141
1.0
290
     0
  0
SCALE
  5
55
102
{ACAD_REACTORS
330
47
102
}
330
47
100
AcDbScale
 70
     0
300
4:1
140
4.0
141
1.0
290
     0
  0
SCALE
  5
56
102
{ACAD_REACTORS
330
47
102
}
330
47
100
AcDbScale
 70
     0
300
8:1
140
8.0
141
1.0
290
     0
  0
SCALE
  5
57
102
{ACAD_REACTORS
330
47
102
}
330
47
100
AcDbScale
 70
     0
300
10:1
140
10.0
141
1.0
290
     0
  0
SCALE
  5
58
102
{ACAD_REACTORS
330
47
102
}
330
47
100
AcDbScale
 70
     0
300
100:1
140
100.0
141
1.0
290
     0
  0
SCALE
  5
59
102
{ACAD_REACTORS
330
47
102
}
330
47
100
AcDbScale
 70
     0
300
1/128" = 1'-0"
140
0.0078125
141
12.0
290
     0
  0
SCALE
  5
5A
102
{ACAD_REACTORS
330
47
102
}
330
47
100
AcDbScale
 70
     0
300
1/64" = 1'-0"
140
0.015625
141
12.0
290
     0
  0
SCALE
  5
5B
102
{ACAD_REACTORS
330
47
102
}
330
47
100
AcDbScale
 70
     0
300
1/32" = 1'-0"
140
0.03125
141
12.0
290
     0
  0
SCALE
  5
5C
102
{ACAD_REACTORS
330
47
102
}
330
47
100
AcDbScale
 70
     0
300
1/16" = 1'-0"
140
0.0625
141
12.0
290
     0
  0
SCALE
  5
5D
102
{ACAD_REACTORS
330
47
102
}
330
47
100
AcDbScale
 70
     0
300
3/32" = 1'-0"
140
0.09375
141
12.0
290
     0
  0
SCALE
  5
5E
102
{ACAD_REACTORS
330
47
102
}
330
47
100
AcDbScale
 70
     0
300
1/8" = 1'-0"
140
0.125
141
12.0
290
     0
  0
SCALE
  5
5F
102
{ACAD_REACTORS
330
47
102
}
330
47
100
AcDbScale
 70
     0
300
3/16" = 1'-0"
140
0.1875
141
12.0
290
     0
  0
SCALE
  5
60
102
{ACAD_REACTORS
330
47
102
}
330
47
100
AcDbScale
 70
     0
300
1/4" = 1'-0"
140
0.25
141
12.0
290
     0
  0
SCALE
  5
61
102
{ACAD_REACTORS
330
47
102
}
330
47
100
AcDbScale
 70
     0
300
3/8" = 1'-0"
140
0.375
141
12.0
290
     0
  0
SCALE
  5
62
102
{ACAD_REACTORS
330
47
102
}
330
47
100
AcDbScale
 70
     0
300
1/2" = 1'-0"
140
0.5
141
12.0
290
     0
  0
SCALE
  5
63
102
{ACAD_REACTORS
330
47
102
}
330
47
100
AcDbScale
 70
     0
300
3/4" = 1'-0"
140
0.75
141
12.0
290
     0
  0
SCALE
  5
64
102
{ACAD_REACTORS
330
47
102
}
330
47
100
AcDbScale
 70
     0
300
1" = 1'-0"
140
1.0
141
12.0
290
     0
  0
SCALE
  5
65
102
{ACAD_REACTORS
330
47
102
}
330
47
100
AcDbScale
 70
     0
300
1-1/2" = 1'-0"
140
1.5
141
12.0
290
     0
  0
SCALE
  5
66
102
{ACAD_REACTORS
330
47
102
}
330
47
100
AcDbScale
 70
     0
300
3" = 1'-0"
140
3.0
141
12.0
290
     0
  0
SCALE
  5
67
102
{ACAD_REACTORS
330
47
102
}
330
47
100
AcDbScale
 70
     0
300
6" = 1'-0"
140
6.0
141
12.0
290
     0
  0
SCALE
  5
68
102
{ACAD_REACTORS
330
47
102
}
330
47
100
AcDbScale
 70
     0
300
1'-0" = 1'-0"
140
12.0
141
12.0
290
     0
  0
ENDSEC
  0
EOF
